Song name
# A B C D E F G H I J K L M N O P Q R S T U V W X Y Z

Jeremys - Intro I Want A Girl tab

-------------------------------------------------------------------------------
			     (intro) I want a girl - Jeremys
-------------------------------------------------------------------------------
Tabbed by:Justin and René
Email:

Tuning:
   C    F    Am   G    C    F    Am   G
e|---------------------------------------------------------------------------|
B|---1----1----1----0----1----1----1----0------------------------------------|
G|----0----2----2----0----0----2----2----0-----------------------------------|
D|--2----3----2---------2----3----2------------------------------------------|
A|-3----3----0-----2---3----3----0-----2-------------------------------------|
E|----------------3-------------------3--------------------------------------|


************************************

If you think its wrong, play it diffrent.

************************************
Tap to rate this tab
# A B C D E F G H I J K L M N O P Q R S T U V W X Y Z