Jericho Jones - Mona Mona tab

Jericho (also known as Jericho Jones) "Mona mona"
B-side to the single "Don't you let me down", 1972

Tabbed by Anders Pedersen.

LEGEND:


1/(3): Slide up without picking the second note

^Full: Bend note one full tone up



RIff A:
|------------------------------|
|------------------------------|
|------------------------------|
|------------------------------|
|5----5-5----3--5----5-5----3--|
|3----3-3----1--3----3-3----1--|


RIff A1: With wah-wah

|--------------------------------------------|
|--------------------------------------------|
|--------------------------------------------|
|3-/-(5)----7-/-(5)----3-/-(5)----7-/-(5)----|
|1-/-(3)----5-/-(3)----1-/-(3)----5-/-(3)----|
|--------------------------------------------|

Lick A:              ___________  ________
                    |1., 3.      |2., 4.
|--------------------------------|.---------|
|11-10-8-10-8-6-8----11---13-----|6---3-----|
|--------------------------------|----------|
|--------------------------------|----------|
|--------------------------------|----------|
|--------------------------------|----------|


Lick A1                 ___________  ________
                       |1., 3.      |2., 4.
|13-12-10-12-10-8-10----13---15-----|8---5-----|
|-----------------------------------|----------|
|-----------------------------------|----------|
|-----------------------------------|----------|
|-----------------------------------|----------|
|-----------------------------------|----------|


Riff B (verse):
|--------------------------------------------------------|
|--------------------------------------------------------|
|--------------------------------------------------------|
|------3--5----------------------------------------------|
|1--3--------1--3--------5----5-5----3--5----5-5----3----|
|------------------1--3--3----3-3----1--3----3-3----1----|


Riff C ("Outside my window..."):
|------------------------------------------------------------------|
|------------------------------------------------------------------|
|------------------------------------------------------------------|
|5---5---5---5-5---3---3-------------------------------------------|
|3---3---3---3-3---1---1---6---6---5----5-5----3--5----5-5----3----|
|--------------------------4---4---3----3-3----1--3----3-3----1----|

Riff D ("I can see Mona Mona..."):
|---------------------------|
|---------------------------|
|---------------------------|
|3------5-------------------|
|1------3------5------------|
|--------------3------------|

Lick B:
|---------------------------|
|---------------------------|
|---------------------------|
|3--------------------------|
|5^full---------------------|
|---------------------------|
Bend 4th streng, 5th fret up on full tone. Pick these two notes 16 times.

Song structure:
Play Riff A + A1 X2
Play Riff A + Lick A X2
Play Riff B X2
Play Riff C X2
Play Riff B X2
Play Riff C X2
Play Riff D X4
Play Riff A + Lick A X2
Play Riff A + Lick A + Lick A1 X2
Play Riff C X2 (with various guitar licks)
Play Riff D X4 (with various guitar licks)
Break with lick B
Play Riff A1 X1
Play Riff A + A1 X1
Play Riff B X4
Break
Play Riff A + Lick A X2
Play Riff A + Lick A + Lick A1 X2
Fade
Tap to rate this tab
 
# A B C D E F G H I J K L M N O P Q R S T U V W X Y Z