Jericho Rosales - Bumuhos Man Ang Ulan tab

********THIS IS MY FIRST TAB*********

Artist:Jericho Rosales
Title:Bumuhos Man Ang Ulan (Green Rose OST)


Tabbed by: JINRI F. LAYESE a.k.a Buwad-Pepe





e----3--------------3----7--8--------------------/
B-5--------3---5---------------5-----5-----3-----/
G-5-----5------5--5----5-------5--5-----5--------/
D------------------------------------------------/
A------------------------------------------------/
E------------------------------------------------/


\----3--------------3----7--8----15--------------/
\-5--------3---5---------------------------------/
\-5-----5------5--5----5-------------------------/
\------------------------------------------------/
\------------------------------------------------/
\------------------------------------------------/
\


\------------ -1-------/
\-------1--------------/
\-2--------2-------2---/
\----1-----------------/
\----------------------/
\-1--------------------/


\---------------0-------/
\-------3---------3-----/
\-0---------0-------0---/
\----0----------------0-/
\-----------------------/
\-3---------------------/


\------------ -1-------/
\-------1--------------/
\-2--------2-------2---/
\----1-----------------/
\----------------------/
\-1--------------------/


\-3---]
\-3---]
\-----]
\-----]
\-2---]
\-3---]


chords:
verse and chorus.
C-G-Am-F-C-Am-F-G
(these chords runs through out the whole song except for the last chorus where the 
chords are D-A-Bm-A)

                   *****I'M NOT REALLY SURE WITH THIS TAB*****
*****JUST PLAY WITH THOSE CHORDS IF YOU'RE NOT CONVINCED WITH THIS TAB******
:)
:)
:)
THANKS AND KEEP THE IRIE VIBE COMING.!!!!!!!
Tap to rate this tab
 
# A B C D E F G H I J K L M N O P Q R S T U V W X Y Z