Song name
# A B C D E F G H I J K L M N O P Q R S T U V W X Y Z

Jerk - Blow It All Away tab

First Guitar tab I ever made, from one of the greatest bands ever, enjoy

Artist: Jerk
Song Title: Blow It All Away
Song Length: 4:20
Website Band: http://www.myspace.com/jerkband

|-------------------------------------------|
|/--                      |  | |-- O |   |  |
||   |   o |  | |  | \ /  |  | |     |\  |  |
| \  | /   |\ | |\ |  V   |--| |-  | | \ |  |
|  | |<  | | \| | \|  |   |  | |   | |  \|  |
|--/ | \ | |  | |  |  |   |  | |-- | |   |  |
|-------------------------------------------|

intro (0:00-0:50)

E|-----------------------|
B|-----------------------|
G|-----------------------|
D|-----------------------|
A|-3-3--3/5-5--6-6-66-6--|
E|-----------------------|

E|-----------------------|
B|-----------------------|
G|-----------------------|
D|-----------------------|
A|-3-3--3/5-5--1-1-1p-0--|
E|-----------------------| both parts x4

part 2 (0:50-1:15)

E|-------------------------|
B|-------------------------|
G|-5--5--8-7-5--8-7-5--11--|
D|-5--5--8-7-5--8-7-5--11--|
A|-3--3--6-5-3--6-5-3--9---|
E|-------------------------|

E|-------------------------|
B|-------------------------|
G|-5--5--8-7-5--8-7-5------|
D|-5--5--8-7-5--8-7-5------|
A|-3--3--6-5-3--6-5-3------|
E|-------------------------| both parts x4


(1:15-1:40)
intro x2


(1:40-2:05)
part 2 x2


part 3 (2:05-2:35) (play the two parts x2 and then finish with the first part)

E|------------------------------------------------|
B|------------------------------------------------|
G|-8-8-8-8-8-8-8-8-8--11-11-11-11--10-10--10-11-10|
D|------------------------------------------------|
A|-6-6-6-6-6-6-6-6-6--9--9--9--9---8--8---8--9--8-|
E|------------------------------------------------|

E|-------------------------------------|
B|-------------------------------------|
G|-5-5-5-5-5-5-5-5--5--7-7-7-7--3-2-3-2|
D|-------------------------------------|
A|-3-3-3-3-3-3-3-3--3--5-5-5-5--1-0-1-0|
E|-------------------------------------|


(2:35-2:40)
part 2 x1

(2:40-3:20)
intro x3

(3:20-3:45)
part 2 x4

(3:45-4:10)
part 3 + part 4 (at the same time) x2


part 4 

E|----------------------------------------------------------------|
B|----------------------------------------------------------------|
G|----------------------------------------------------------------|
D|-5-5-5-5-5-5--10\3--3-3-3-3-3--10\1--1-1-1-1-1------------------|
A|----------------------------------------------3/8--8-8-8-8-8-8-8|
E|----------------------------------------------------------------|

part 5 (4:10-4:15)
  
E|-------------------------------------|
B|-------------------------------------|
G|-------------------------------------|
D|-5-5-5-5-5-5-5-5--8-8-8-8-11-11-11-11|
A|-------------------------------------|
E|-------------------------------------|

part 2 (4:15-End)
Tap to rate this tab
 
# A B C D E F G H I J K L M N O P Q R S T U V W X Y Z