Guitaretab - guitar tabs
Song name
# A B C D E F G H I J K L M N O P Q R S T U V W X Y Z

Jerks - Anti Everything tab

The Jerks - Anti Everything
Tabbed By - Zac Mckenna

Intro
E--------------------------------------|
B--------------------------------------|
G--------------------------------------|
D----------------------------X2--------|
A-7777777777777776---------------------|
E--------------------------------------|

Intro/Verse
E--------------------------------------|
B--------------------------------------|
G-------101010--777--999---------------|
D-777---101010--777--999---------------|
A-777---8-8-8---555--777---------------|
E-555 ---------------------------------|    
[ Tab from: http://www.guitaretab.com/j/jerks/133060.html ]
Chorus
E--------------------------------------|
B--------------------------------------|
G-----------7777--9999-----------------|
D-77777777--7777--9999-----------------|
A-77777777--5555--7777-----------------|
E-55555555-----------------------------|

Bridge
E--------------------------------------|
B--------------------------------------|
G--------------------------------------|
D-7--------7--------7----7----7----7---|
A-7--------7--------7----7----7----7---|
E-5--------5--------5----5----5----5---|

E--------------------------------------|
B--------------------------------------|
G------7--9----------------7777----9999|
D-7----7--9---X3--7--------7777----9999|
A-7----5--7-------7--------5555----7777|
E-5---------------5--------------------|
Related for Anti Everything tab