Song name
# A B C D E F G H I J K L M N O P Q R S T U V W X Y Z

Jerks - Molotov Cocktail tab

The Jerks - Molotov Cocktail
Tabbed By - Zac Mckenna

Intro/Verse
E-----------------------------------------|
B-----------------------------------------|
G-----------7--7-7----6-6----5--5-5-5-----|
D-5--5-5----7--7-7----6-6----5--5-5-5-----|
A-5--5-5----5--5-5----4-4----3--3-3-3-----|
E-3--3-3----------------------------------|

E-----------------------------------------|
B-----------------------------------------|
G-7-7-7777--7-7-7777----7-----------------|
D-7-7-7777--7-7-7777----------------------|
A-5-5-5555--5-5-5555----5-----------------|
E-----------------------------------------|

Chorus
E-----------------------------------------|
B-----------------------------------------|
G-----------------------------------------|
D-5-5-5555--5-5-5555--7-7-7777--7-7-7777--|
A-5-5-5555--5-5-5555--7-7-7777--7-7-7777--|
E-3-3-3333--3-3-3333--5-5-5555--5-5-5555--|

B-----------------------------------------|
B-----------------------------------------|
G-5-5-5555--5-5-5555----------------------|
D-5-5-5555--5-5-5555--5-5-5555--5-5-5555--|
A-3-3-3333--3-3-3333--5-5-5555--5-5-5555--|
E---------------------3-3-3333--3-3-3333--|
Tap to rate this tab
 
# A B C D E F G H I J K L M N O P Q R S T U V W X Y Z