Song name
# A B C D E F G H I J K L M N O P Q R S T U V W X Y Z

Jerks - Yeah Yeah Yeah tab

Help us improve GuitareTab! Take a short survey!
Song: Yeah, Yeah, Yeah
Band: Alice Cooper
Album: Killer
Year: 1971
Tabbed by DoteStudios
Email is manbearpigisreal@gmail.com

Keys
b = bend
r = release
\ = slide up neck 
/ = slide down neck
h = hammer-on
p = pull-off
~ = hold note

You can be my slave and Ill be your stranger
We could be in passion, we could be in danger
E--------------------------------------------------------------------|
B--------------------------------------------------------------------|
G-2--2------2--2------x-x-x-x-x-x-x-x-x-x--2--2------2--2------------|
D-2--2------2--2------x-x-x-x-x-x-x-x-x-x--2--2------2--2------------|
A-0--0------0--0------x-x-x-x-x-x-x-x-x-x--0--0------0--0------------|
E-------0h2-------0h2----------------------------0h2-------0h2-------|

Take you off the streets put you under my wings
E---------------------------|
B-------------------------7-|
G--------------/6-9-9p6-9---|
D-----7---7--9--------------|
A-7h9---9-------------------|
E---------------------------|

Yeah, you could pull my leg or anything
Yeah
yeah, yeah, yeah
E-----------------------------------------------------------|
B-----------------------------------------------------------|
G---------------7--7---9--9---------------------------------|
D-9--9---9--9---7--7---9--9-------7---7--9-9b11--9-7---7----|
A-9--9---9--9---5--5---7--7---7h9---9----------------9----9-|
E-7--7---7--7-----------------------------------------------|

Yeah
yeah, yeah, yeah
E--------------------------------------------------|
B----------------------------------------------9~~-|
G--------7--7---------------------9------------9~~-|
D-9--9---7--7-------7---7--9-9b11~~~11~11r9-7--9~~-|
A-9--9---5--5---7h9---9------------------------7~~-|
E-7--7---------------------------------------------|

Oh yeah

You could be the devil, you could be the savior
Well I really can't tell by the way that your behavior
E---------------------------------------------------|
B--------------------------------10--10\---10--10\--|
G---------------------------------9---9\----9---9\--| 2x
D-----7---7--9-9b11--9-7---7------------------------|
A-7h9---9----------------9----9---------------------|
E---------------------------------------------------|

I'll take you off the boat put you under my wing
E---------------------------|
B-------------------------7-|
G--------------/6-9-9p6-9---|
D-----7---7--9--------------|
A-7h9---9-------------------|
E---------------------------|

Yeah, you could pull my leg or anything
Yeah 
yeah, yeah, yeah
E-----------------------------------------------------------|
B-----------------------------------------------------------|
G---------------7--7---9--9---------------------------------|
D-9--9---9--9---7--7---9--9-------7---7--9-9b11--9-7---7----|
A-9--9---9--9---5--5---7--7---7h9---9----------------9----9-|
E-7--7---7--7-----------------------------------------------|

Yeah 
yeah, yeah, yeah
E----------------------------------------------|
B----------------------------------------------|
G--------7--7----------------------------------|
D-9--9---7--7-------7---7--9-9b11--9-7---7~~\--|
A-9--9---5--5---7h9---9----------------9-------|
E-7--7-----------------------------------------|

Oh yeah

(can't get this part)

I don't know what you're playin
Don't even know what you're sayin
You gotta leave me alone
I'm gonna go on home
Guitar 1
E---------------------------------------------------------------------|
B---------------------------------------------10b12-10b12-------------|
G------------------12b14-12b14----------------------------------------|
D---------------------------------------------------------------------|
A---------------------------------------------------------------------|
E---------------------------------------------------------------------|

Guitar 2
E---------------------------------------------------------------------|
B---------------------------------------------------------------------|
G---------------------------------------------------------------------|
D-5-5-5--5-5--5--5--5-5-5-5--7-7-7--7-7--7--7--7-7-7-7--9-9-9--9-9--9-|
A-5-5-5--5-5--5--5--5-5-5-5--7-7-7--7-7--7--7--7-7-7-7--9-9-9--9-9--9-|
E-3-3-3--3-3--3--3--3-3-3-3--5-5-5--5-5--5--5--5-5-5-5--7-7-7--7-7--7-|

Guitar 1
E--------------------------------------------------|
B---12b14-12b14------------------------------------|
G--------------------------------------------------|
D--------------------------------------------------|
A--------------------------------------------------|
E--------------------------------------------------|

Guitar 2
E--------------------------------------------------|
B--------------------------------------------------|
G--------------------------------------------------|
D-9--9-9-9-9--12-12-12--12-12--12--12--12-12-12-12-|
A-9--9-9-9-9--12-12-12--12-12--12--12--12-12-12-12-|

Solo
Guitar 3
E-------17------17-------17-------17-|
B-20b22---20b22----20b22----20b22----|
G------------------------------------| repeat till
D------------------------------------| end of solo
A------------------------------------|
E------------------------------------|

Then enters in guitar 2 at 1:49
Guitar 2
E----------------------------|
B----------------------------|
G----------------------------| repeat till
D-----7---7--9-10p9p7---7----| end of solo
A-7h9---9-------------9----9-|
E----------------------------|
Slow pull-offs

Then enters in guitar 1 at 1:55
Guitar 1
E----------------------------|
B----------------------------|
G----------------------------| 6x
D----------------------------|
A-----7---7--9-10p9p7---7----|
E-7h9---9-------------9----9-|
Slow pull-offs

E--------------------------------|
B--------------------------------|
G--------------------------------| 5x
D--------------------------------|
A-----7-7---7--9-9b10r9-7---7----|
E-7b9-----9---------------9----9-|

E----------------------------|
B----------------------------|
G--------------------------6-|
D----------------6-9-9p6-9---|
A-----7-7---7--9-------------|
E-7b9-----9------------------|

Aaoh, the things are gettin tougher
Yeah, the things are gettin rougher
This is Alice speakin
Guitar 1
E---------------------------------------------------------------------|
B---------------------------------------------------------------------|
G---------------------------------------------------------------------|
D---------------12p9-7-9p7-7-------------14p12-9-12p9-9---------------|
A---------------------------------------------------------------------|
E---------------------------------------------------------------------|

Guitar 2
E---------------------------------------------------------------------|
B---------------------------------------------------------------------|
G---------------------------------------------------------------------|
D-5-5-5--5-5--5--5--5-5-5-5--7-7-7--7-7--7--7--7-7-7-7--9-9-9--9-9--9-|
A-5-5-5--5-5--5--5--5-5-5-5--7-7-7--7-7--7--7--7-7-7-7--9-9-9--9-9--9-|
E-3-3-3--3-3--3--3--3-3-3-3--5-5-5--5-5--5--5--5-5-5-5--7-7-7--7-7--7-|

Guitar 2
E--------------------------------------------------|
B--------------------------------------------------|
G--------------------------------------------------|
D-9--9-9-9-9--12-12-12--12-12--12--12--12-12-12-12-|
A-9--9-9-9-9--12-12-12--12-12--12--12--12-12-12-12-|
E-7--7-7-7-7--10-10-10--10-10--10--10--10-10-10-10-|

Suffer!

E---------------------------|
B-------------------------7-|
G--------------/6-9-9p6-9---|
D-----7---7--9--------------|
A-7h9---9-------------------|
E---------------------------|

Yeah
Yeah, yeah, yeah
E---------------5~~--|
B---------------5~~--|
G--------7--7---6~~--|
D-9--9---7--7---7~~--|
A-9--9---5--5---7~~--|
E-7--7----------5~~--|

You could be the devil
You could be the savior
E-------------------9--10--9----9--10--9----|
B------------------10--10-10---10--10-10----|
G-------------------9---9--9----9---9--9----|
D-7--7-7---7--7-7---------------------------|
A-7--7-7---7--7-7---------------------------|
E-5--5-5---5--5-5---------------------------|

Well I really can't tell
By the way that your behavior
E--------------------------9--10--9----9--10--9----|
B--8-8--8-8---8-8---8-8---10--10-10---10--10-10----|
G--9-9--9-9---9-9---9-9----9---9--9----9---9--9----|
D--7-7--7-7---7-7---7-7----------------------------|
A--------------------------------------------------|
E--------------------------------------------------|

Take you off the streets put you under my wings
E---------------------------|
B-------------------------7-|
G--------------/6-9-9p6-9---|
D-----7---7--9--------------|
A-7h9---9-------------------|
E---------------------------|

Yeah, you could pull my leg or anything
Yeah 
yeah, yeah, yeah
E-----------------------------------------------------------|
B-----------------------------------------------------------|
G---------------7--7---9--9---------------------------------|
D-9--9---9--9---7--7---9--9-------7---7--9-9b11--9-7---7----|
A-9--9---9--9---5--5---7--7---7h9---9----------------9----9-|
E-7--7---7--7-----------------------------------------------|

Yeah 
yeah, yeah, yeah
E---------------5~~--|
B---------------5~~--|
G--------7--7---6~~--|
D-9--9---7--7---7~~--|
A-9--9---5--5---7~~--|
E-7--7----------5~~--|
Related for Yeah Yeah Yeah tab