Song name
# A B C D E F G H I J K L M N O P Q R S T U V W X Y Z

Jermaine Stewart - We Dont Have To Take Our Clothes Off tab

Hey guys! i had to do this for my house music and i was really pissed off when there was
tabs for it. I improvised off the CD with my guitar teacher,-SHOUT OUT TO MR. HUMES
MICKY H!-so forgive me if its a little out. :D

Listen to the song for the rhythm!!

Tabbed by: Jenny
Email: mental_ward123@hotmail.co.uk

Tuning:EADGBe

(on intro add a slide from the ninth fret to the 1st fret on the 2nd and 3rd string!)

e|--2--0-----0--2--0-----2--0-----0--2--0--2--0-----2--0-----0--2--0-------|
B|--------2--------------------2--------------------------2----------------|
G|-------------------------------------------------------------------------|
D|-------------------------------------------------------------------------|
A|-------------------------------------------------------------------------|
E|-------------------------------------------------------------------------|


e|--2--0-----4\2--2\0--0---------------------------------------------------|
B|--------2----------------------------------------------------------------|
G|-------------------------------------------------------------------------|
D|-------------------------------------------------------------------------|
A|-------------------------------------------------------------------------|
E|-------------------------------------------------------------------------|

Repeat this for intro and chorus and "Na na na..." bit... In verses play this (below)
"...but im not a piece of meat, stimulate my brain..." in the 1st verse and after "...a
wants to be approached cool and romantically..."

e|--7--9--7--9--9--7--(repeat through verse)-------------------------------|
B|-------------------------------------------------------------------------|
G|-------------------------------------------------------------------------|
D|-------------------------------------------------------------------------|
A|-------------------------------------------------------------------------|
E|-------------------------------------------------------------------------|

Then in pre chorus play...

e|-------------------------------------------------------------------------|
B|----9--99--9--99--9--99--9\0---------------------------------------------|
G|----9--99--9--99--9--99--9\0---------------------------------------------|
D|-------------------------------------------------------------------------|
A|-------------------------------------------------------------------------|
E|-------------------------------------------------------------------------|


And thats basically it...u can easily jazz it up a bit if you want to eg. put in more
or hamer the 2 fret on the chorus and intro but it sounds fine if you just do this! 
guitaring!!


| /  slide up
| \  slide down
| h  hammer-on
| p  pull-off
| ~  vibrato
| +  harmonic
| x  Mute note
Tap to rate this tab
# A B C D E F G H I J K L M N O P Q R S T U V W X Y Z