Song name
# A B C D E F G H I J K L M N O P Q R S T U V W X Y Z

Jeromes Dream - Its More Like A Message To You tab

A
|-----------------|------------------|
|-111111-11-11-11-|-101010--10-10-10-|
|-----------------|------------------|
|-8-8-8---8--8--8-|-7-7-7---7--7--7--|
|-----------------|------------------|
|-----------------|------------------|

|-------------------------|------------------------|
|-17-17-17-17-18-18-18-18-|-20-20-20-20-14--14--14-|
|-------------------------|------------------------|
|-14-14-14-14-15-15-15-15-|-17-17-17-17-11--11--11-|
|-------------------------|------------------------|
|-------------------------|------------------------|

B
|-------------------------|-------------------------|
|-13--13--13--13--13--13--|-13--13--13--13--13b-13b-|
|-------------------------|-------------------------|
|-10--10--10--10--10--10--|-10--10--10--10--10b-10b-|
|-------------------------|-------------------------|
|-------------------------|-------------------------|

C
|----------------------|---------------------|
|-15---15---15---14-15-|-14---10---10---10---|
|----------------------|---------------------|
|-12---12---12---11-12-|-11----7----7----7---|
|----------------------|---------------------|
|----------------------|---------------------|

|-------------------------|-------------------------|
|-18--18--18--18--18--18--|-17--17--17--17--17--17--|
|-------------------------|-------------------------|
|-15--15--15--15--15--15--|-15--15--15--15--15--15--|
|-------------------------|-------------------------|
|-------------------------|-------------------------|

slight variation.
Tap to rate this tab
 
# A B C D E F G H I J K L M N O P Q R S T U V W X Y Z