Song name
# A B C D E F G H I J K L M N O P Q R S T U V W X Y Z

Jeromes Dream - This Ones For Baby Fat tab

JEROME's DREAM  THIS ONE'S FOR BABY FAT

e|------------------|
b|------------------|
G|-19--19--19--19---|
D|------------------| x9
A|---18--18--18--18-|
E|------------------|

e|--------------|
b|--------------|
G|-7-7-7-22-22--|
D|--------------| x4
A|-6-6-6-21-21--|
E|--------------|

e|--------------------------|
b|--------------------------|
G|-19--19--19--19--19--19---|
D|--------------------------| 
A|---18--18--18--18--18--18-|
E|--------------------------|

e|-------|
b|-------|
G|-19-19-|
D|-------|
A|-18-18-|
E|-------|

e|--------------------------|
b|--------------------------|
G|-19--19--19--19--19--19---|
D|--------------------------| 
A|---18--18--18--18--18--18-|
E|--------------------------|

e|----------|
b|----------|
G|-22-22-22-|
D|----------| x4
A|-21-21-21-|
E|----------|

e|------------------------------------|
b|---------------------15151515151515-|
G|-12-12-18--12-12--12-18181818181818-|
D|------------------------------------| x3
A|-11-11-17--11-11--11----------------|
E|------------------------------------|

e|----------|
b|----------|
G|-12-12-18-|
D|----------| 
A|-11-11-17-|
E|----------|
Tap to rate this tab
# A B C D E F G H I J K L M N O P Q R S T U V W X Y Z