Song name
# A B C D E F G H I J K L M N O P Q R S T U V W X Y Z

Jeromes Dream - Untitled Number 2 tab

JEROMES DREAM - UNTITLED NUMBER TWO

e|------------------------------------------------------------|
b|-----------6------------9------------6------------9---------|
G|-10---10------10---10------10---10------10---10-----10---10-|
D|----8----8-------8----8-------8----8-------8----8------8----|
A|------------------------------------------------------------|
E|------------------------------------------------------------|

e|---------9----------------8--------|
b|----7------7----7----7------7----7-|
G|-11---11-----11---10---10-----10---|
D|-----------------------------------|
A|-----------------------------------|
E|-----------------------------------|

e|---------9------------------8----|
b|----7------7----7----7-----------|
G|-11---11-----11---10---10-----10-|
D|---------------------------------|
A|---------------------------------|
E|---------------------------------|

repeat above 3 parts x8

e|---------9----------------8--------|
b|----7------7----7----7------7----7-|
G|-11---11-----11---10---10-----10---|
D|-----------------------------------|
A|-----------------------------------|
E|-----------------------------------|

e|---------9------------------8----|
b|----7------7----7----7-----------|
G|-11---11-----11---10---10-----10-|
D|---------------------------------|
A|---------------------------------|
E|---------------------------------|

repeat above 2 parts x4

e|-------9----------9-----|
b|-7-----7----------7-----|
G|-11----10---------10----|
D|-9-----9-----8----9-----|
A|------------------------|
E|------------------------|

e|----------7/9-------|
b|--------------11-11-|
G|----5---------------|
D|--------------10-10-| x4
A|-4-----4------------|
E|--------------------|

drums

e|-------------------|
b|-------------------|
G|-----5-5---5-5-6-6-|
D|---------5---------| x3
A|-4-4-------4-4-5-5-|
E|-------------------|

slight pause

e|-------------------|
b|-------------------|
G|-----5-5---5-5-6-6-|
D|---------5---------| 
A|-4-4-------4-4-5-5-|
E|-------------------|

e|----------7/9-------|
b|--------------11-11-|
G|----5---------------|
D|--------------10-10-| x2
A|-4-----4------------|
E|--------------------|


e|----------------------------------------------|
b|----------------------------------------------|
G|-11-11-11-11-11-11----11-11-11-11-11-6--------|
D|----------------------------------------------|
A|-10-10-10-10-10-10----10-10-10-10-10-5--------|
E|----------------------------------------------|
Tap to rate this tab
# A B C D E F G H I J K L M N O P Q R S T U V W X Y Z