Song name
# A B C D E F G H I J K L M N O P Q R S T U V W X Y Z

Jeromes Dream - A Present For Those Who Are Present tab

-------------------------------------------------------------------------------
A Present For Those Who Are Present - Jeromes Dream
-------------------------------------------------------------------------------
Tabbed by: Matthew Green
Email: Matt_green_skater@hotmail.com
Band Page: http://cleanplate.com/jeromesdream/

Tuning: Standard
x=strum fast
*=Pause with feedback
#=clean pause

e|---------------------------------------------------------------------------------|
B|---------------------------------------------------------------------------------|
G|21-21-21---21-21--21--21-21-21---21-21--21---23-23-23---8--8-10-10---------------|
D|---------------------------------------------------------------------------------|x4
A|-19-19-19---19-19--19--19-19--19--19-19--19---20-20-20--6--6-8--8----------------|
E|-0---0---0----0---0---0---0---0---0---0---0---0----19-19-19----------------------|
                   *                *               *                 *
e|-------------------------------------------------------------------------|
B|-------------------------------------------------------------------------|
G|-7---------12--11-11-----------------------------------------------------|
D|-------------------------------------------------------------------------|x4(then 
A|-6---------10--9--9------------------------------------------------------|
E|-0-----------------------------------------------------------------------|
                                #
 (then strum the first chord over and over whilst the bass and drums randomly smash out at random times)

e|---------------------------------------------------------------------------|
B|---------------------------------------------------------------------------|
G|-13--16--17-17-17-17-------------------------------------------------------|
D|---------------------------------------------------------------------------|x4
A|-11--14--15-15-15-15-------------------------------------------------------|
E|-----------0---0--0--0-----------------------------------------------------|
     xxxxx
 (Strum the last chord 8 times at the last riff)
e|----------------------------------------------------------------------19------|
B|--------------------------------------------------------17--21--19------------|
G|21-21-21---21-21--21--21-21-21---21-21--21------------------17----------------|
D|--------------------------------------------------------15--19--17------------|x2
A|-19-19-19---19-19--19--19-19--19--19-19--19-----------------------------------|
E|-0---0---0----0---0---0---0---0---0---0---0---0-------------------------------|
	       *                *                *                   xxxxxxxxxxxx
 (Use the first chord of the riff and hit it in the same rythm but twice as many times)
Tap to rate this tab
# A B C D E F G H I J K L M N O P Q R S T U V W X Y Z