Jerrod Niemann - Lover Lover tab


Intro and on throughout the verses as well:

E|---------------------------------------------------------------|
B|-----------(3)------------------------------(3)----------------|
G|-0----------0--0h2-0--------------0----------0--0h2-0----------|
D|-0h2-0------2--------2p0-----0----0h2-0------2--------2p0------|   Etc.
A|-------2p0--3----------------2----------2p0--3-----------------|
E|-----------------------------3---------------------------------|

The Chorus just goes between G and C with kind of an off-beat feel.

Personally I think these forms of G and C sound good for the Chorus but hey, it's 
Do what you think sounds best :D


  The G     The C
E|--3----------3------------|
B|--3----------1 (or 3)-----|
G|--0----------0------------|
D|--0----------2------------|
A|--2----------3------------|
E|--3-----------------------|


-------HOPE THIS HELPS YOU :D _____  ~ David Smith, FC Friends Band _____
Tap to rate this tab
 
# A B C D E F G H I J K L M N O P Q R S T U V W X Y Z