Song name
# A B C D E F G H I J K L M N O P Q R S T U V W X Y Z

Jerrod Niemann - Drink To That tab

Drink To That All Night - Jerrod Niemann

Intro: 
  PM-------------------------------------------------------------|
  F5                Am                G5                (G5)
|-----------------|-----------------|-----------------|----------|
|-----------------|-1-1-1-1-1-1-1-1-|-----------------|----------|
|-----------------|-2-2-2-2-2-2-2-2-|-----------------|-5-4-2----| (2x)
|-3-3-3-3-3-3-3-3-|-2-2-2-2-2-2-2-2-|-5-5-5-5-5-5-5-5-|-------5--|
|-3-3-3-3-3-3-3-3-|-0-0-0-0-0-0-0-0-|-5-5-5-5-5-5-5-5-|----------|
|-1-1-1-1-1-1-1-1-|-----------------|-3-3-3-3-3-3-3-3-|----------|

[Verse 1]
 Am
Dontcha look now oh the parkin lots full
Gonna ride that cow with a Dallas bull 
 C
Everybody in the ATL is comin
 G
DJs got those speakers thumpin
 Am
Got a black ford not a white mercedes
Walkin in the front door checkin out the ladies
 C
My buddy says hey boys I'm buyin
 G
The hottest girl in here's givin me the eye and.

[Chorus]
 Dm               F
Everybody knows, its gonna be one of those
 F
I can drink to that all night
 Am
Thats the stuff I like
 G
Thats the kind of party makes you throw your hands up high
 F                   Am
Bout to tie one on talkin gone gone gone
 G
Turnin all the wrongs into right
 F
I can drink to that all night

  PM-------------------------------------------------------------|
  F5                Am                G5                 
|-----------------|-----------------|-----------------|----------|
|-----------------|-1-1-1-1-1-1-1-1-|-----------------|----------|
|-----------------|-2-2-2-2-2-2-2-2-|-----------------|-5-4-2----| 
|-3-3-3-3-3-3-3-3-|-2-2-2-2-2-2-2-2-|-5-5-5-5-5-5-5-5-|-------5--|
|-3-3-3-3-3-3-3-3-|-0-0-0-0-0-0-0-0-|-5-5-5-5-5-5-5-5-|----------|
|-1-1-1-1-1-1-1-1-|-----------------|-3-3-3-3-3-3-3-3-|----------|

[Verse 2]
 Am
Workin on the sweet thing sittin on a bar stool
Doin shots of Jack girl gonna take it old school
 C 
Singin hell yeah to every song their playin
 G
Do ya wanna dance? Baby I'm just sayin

[Chorus]
[Lead Am/C]

[Bridge]
 Am
Take your cup fill it up
You cant raise it high enough
Take your cup fill it up
You cant raise it high enough

[Chorus] 2x

I can drink to that all night
I can drink to that all night

[Bridge]
Take your cup fill it up
You can't raise it high enough
Take your cup fill it up
You can't raise it high enough
Take your cup fill it up
You can't raise it high enough
Take your cup fill it up
You can't raise it high enough
Tap to rate this tab
# A B C D E F G H I J K L M N O P Q R S T U V W X Y Z