Guitaretab - guitar tabs
Song name
# A B C D E F G H I J K L M N O P Q R S T U V W X Y Z

Jerry Cantrell - Cut You In tab

-----------------------------------------------------------------------------
     Cut You In - Jerry Cantrell
-----------------------------------------------------------------------------
Tabbed by: Dersch
Email: jrderschow@hotmail.com

Tuning: Standard
Intro and main riff I think
e|-1---00--1-1-0-1-2222------------------------------------------------------
B|-1---00--1-1-0-1-2222------------------------------------------------------
G|-2---11--2-2-1-2-3333------------------------------------------------------
D|-3---22--3-3-2-3-4444------------------------------------------------------
A|-3---22--3-3-2-3-4444------------------------------------------------------
E|-1---00--1-1-0-1-2222------------------------------------------------------
[ Tab from: http://www.guitaretab.com/j/jerry-cantrell/120575.html ]
Solo
e|-------4-------4---6b----||--------4-------4---6b--------------------------
B|---6-----6---4---4---4h6-||----6-----6---4---4---4h6-----------------------
G|-5---5-----5-------------||--5---5-----5-----------------------------------
D|-------------------------||------------------------------------------------
A|-------------------------||------------------------------------------------
E|-------------------------||------------------------------------------------

e|---------------------------------------5b6---------------------------------
B|-4h6---4-------------------------------------------------------------------
G|-----5---5-4-1-3b-------------1h3-3b-1-------------------------------------
D|------------------1h3-----1h3----------------------------------------------
A|----------------------1h3--------------------------------------------------
E|---------------------------------------------------------------------------

May not be correct but sounds pretty close. Is my first tab so you'll have to
work out the timing and stuff.
Related for Cut You In tab
×
Best way to learn
"Cut You In"