Song name
# A B C D E F G H I J K L M N O P Q R S T U V W X Y Z

Jerry Cantrell - Castaway tab

Jerry Cantrell
Castaway

Intro: (Distortion)
d|----------------------------------------------------------------------------------|
A|----------------------------------------------------------------------------------|
F|--------4------------------------------------------4------------------------------|
C|-----6------------------------------------------4------------4---6b7r6b7r6--------|
G|--4------------------------------------------2---------------2---4b5r4b5r4--------|
D|----------------------------------------------------------------------------------|
            Daybreak...                              Castaway...


d|---------------------------------------------------------------------------|
A|---------------------------------------------------------------------------|
F|----------4----------------------------------------------------------------|
C|------6-----------4--6b7r6b7r6---------------------------------------------|
G|--4---------------2--4b5r4b5r4--------------9---11b12r11b12r11b12r11b12r11-|
D|--------------------------------------------7---9-b10r9-b10r9-b10r9-b10r9--|
      Patient waits...        ...reachs shore

Verse: (Guitar 1)
d|------------------------------------|
A|------------------------------------|
F|*----------------------------------*|
C|*----------------------------------*|
G|---9---11b12r11b12r11b12r11b12r11---|
D|---7---9-b10r9-b10r9-b10r9-b10r9----|

Verse: (Guitar 2) (Distortion)
d|----------------------------------------------------------------------------------|
A|----------------------------------------------------------------------------------|
F|--------4------------------------------------------4------------------------------|
C|-----6------------------------------------------4------------4---6b7r6b7r6--------|
G|--4------------------------------------------2---------------2---4b5r4b5r4--------|
D|----------------------------------------------------------------------------------|

d|------------------------------------|
A|------------------------------------|
F|----------4-------------------------|
C|------6-----------4--6b7r6b7r6------|
G|--4---------------2--4b5r4b5r4------|
D|------------------------------------|

Chours (Distortion) / Outro:
d|--------------------------|
A|--------------------------|
F|--------------------------|
C|--6--6-6/7---6--6--4--2---|
G|--4--4-4/5---4--4--2--2---|
D|--4--4-4/5---4--4--2--0---|
Tap to rate this tab
# A B C D E F G H I J K L M N O P Q R S T U V W X Y Z