Song name
# A B C D E F G H I J K L M N O P Q R S T U V W X Y Z

Jerry Cantrell - Hellbound tab

Jerry Cantrell
Hellbound

Intro
       scrape     scrape
eb---------------------------|
bb---------------------------|
gb---------------------------|
db-9-8--------8-5--------9-8-|
ab-8-7--------7-4--------8-7-|
Eb---------------------------|

Chorus
eb--------------------------------|
bb--------------------------------|
gb------0-----0-----0---0---------|
db-7--------0-----0---------0-----|
ab-0--7---6-----5-----3---3---3-0-|
Eb--------------------------------|

verse
eb--------------------------------|
bb--------------------------------|
gb------0------0----0---0---------|
db-7v--------0----0---------0-----|
ab----7---6-----5-----3---3---3-0-|
Eb--------------------------------|

eb-------------------|
bb-------------------|
gb-2-2-22-55-5-5/7---|
db-2-2-22-55-5-5/7-7-|
ab-0-0-00-33-3-3/5-7-|
Eb-----------------5-|
                                 (grad. release)
pre chorus                       pm..............
eb------------------|-----------|-----------------|
bb------------------|-----------|-----------------|
gb-2--5--2--5--2--5-|-7---------|-----------------|
db-2--5--2--5--2--5-|-7---------|-----------------|
ab-0--3--0--3--0--3-|-5----0--3-|-555555555555555-|
Eb------------------|----5----1-|-333333333333333-|

Bridge
eb-----------------|--------|-----------|------------|
bb-----------------|-----|--------|------------------|
gb-4/5-4/5-4/5-4/5-|-----|-----|---------------------|
db-x-x-x-x-x-x-x-x-|--------|-----------|------------|
ab-2/3-2/3-2/3-2/3-|--------|-----------|------------|
Eb-----------------|--------|-----------|------------|
Tap to rate this tab
# A B C D E F G H I J K L M N O P Q R S T U V W X Y Z