Song name
# A B C D E F G H I J K L M N O P Q R S T U V W X Y Z

Jerry Cantrell - Psychotic Break tab

Jerry Cantrell
Psychotic Break

 Drop D
plus tune down a whole step.

Intr
|-----------------------------------------------------------------------|
|-----------------------------------------------------------------------|
|-----------------------------------------------------------------------|
|-----------------------------------------------------------------------|
|-----------------------------------------------------------------------|
|-----------------------------------------------------------------------|


                 (vibrato with feel)
------------------------------------------8-----------------------------|
----10---8---6---5-------10---8---6-----------8-------8---10---11-------|
------------------------------------------------------------------------|
0--------------------0--------------------------------------------------|
0--------------------0--------------------------------------------------|
0--------------------0--------------------------------------------------|


                     Intro - Guitar Part 2 (r
-----------------|----------------------||------------------------------|
10---------------|----------------------||------------------------------|
-----------------|----------------------||------------------------------|
-----------------|-------7p5---7^---0---||------------------------------|
-----------------|----------------------||------------------------------|
-----------------|----------------------||------------------------------|


    Intro- Guita4xPart 3 (last four bars only
----------------||-----------------------|------------------------------|
----------------||-----------------------|------------------------------|
----7p5---7^---*||-----------------------|------------------------------|
---------------*||-----------------------|------------------------------|
----------------||-----------------------|------------------------------|
----------------||-----------------------|------------------------------|


Verse Riff(add vibrato)
--------------------------------------------------------|---------------|
--------------------------------------------------------|---------------|
--------------------------------------------------------|---------------|
7p5---7---0---7p5---7---0---7p5---7---0---7p5---7---0---|---------------|
--------------------------------------------------------|---------------|
--------------------------------------------------------|---------------|

------------------------------------------------------------|-----------|
------------------------------------------------------------|-----------|
------------------------------------------------------------|-----------|
9h10---9---0---9h10---9---0---9h10---9---0---9h10---9---0---|-----------|
------------------------------------------------------------|-----------|
------------------------------------------------------------|-----------|

--------------------------------------------------------|---------------|
--------------------------------------------------------|---------------|
--------------------------------------------------------|---------------|
8p7---8---0---8p7---8---0---8p7---8---0---8p7---8---0---|---------------|
--------------------------------------------------------|---------------|
--------------------------------------------------------|---------------|

----------------------------------------------------------------||------|
----------------------------------------------------------------||------|
----------------------------------------------------------------||------|
--------7p5---7---0---7p5---7---0---7p5---7---0---7p5---7---0---||------|
----------------------------------------------------------------||------|
----------------------------------------------------------------||------|


Chorus Riff -Guitar 1
--------------------|-----------------------|---------------------------|
--------------------|-----------------------|---------------------------|
--------------------|-----------------------|---------------------------|
3---5-------0-------|-----------3---5---4---|---------------------------|
3---5---3---0-------|---3---5---3---5---0---|---------------------------|
3---5-------0-------|-----------3---5---0---|---------------------------|

--------------------|-----------------------||--------------------------|
--------------------|-----------------------||--------------------------|
--------------------|-----------------------||--------------------------|
----3---5-------0---|-----------3---8---4---||--------------------------|
----3---5---3---0---|---3---5---3---8---0---||--------------------------|
----3---5-------0---|-----------3---8---0---||--------------------------|


Chorus Riff-Guitar 2                                 4x
-----------------------------------------------------||-----------------|
-----------------------------------------------------||-----------------|
----------------------------------------------------*||-----------------|
3p0---3---0---5p3---5---0---7p5---7---0---7p5---0---*||-----------------|
-----------------------------------------------------||-----------------|
-----------------------------------------------------||-----------------|
Tap to rate this tab
 
# A B C D E F G H I J K L M N O P Q R S T U V W X Y Z