Song name
# A B C D E F G H I J K L M N O P Q R S T U V W X Y Z

Jerry Cantrell - Hurt A Long Time tab

Help us improve GuitareTab! Take a short survey!
Hurt a Long Time
Jerry Cantrell – ‘Boggy Depot’

Tabbed by Chris Brown
Email: cbrown3450@yahoo.com

This is my own interpretation of the song. Please do not send me emails telling me if 
do not agree; constructive criticism only please, this is my first tab.

Tuning:
1/2 step down (Eb, Ab, Db, Gb, Bb, eb)

Guitar I  – Clean (Acoustic)
Guitar II – Distorted

Tempo: Quarter note = 75bpm
Key:
h     – hammer on
p     – pull off
b     - bend

g     - grace note
S     – sixteenth note
E     – eighth note
Q     – quarter note
H     – half note
W     – whole note
|-n-| – ‘n’ triplets
()    - tie
.     – dotted note

Intro:
Guitar I
     E E E E E E E E    W    E E E E |-S-| E E E    W
eb |-----------------|-----|---------------------|-----|
Bb |---3p2-----------|-----|---3p2---3h5p3-2-----|-----|
Gb |-------2-----2-2-|-(2)-|-------2---------2-2-|-(2)-|
Db |---------2-----4-|-(4)-|-------------------4-|-(4)-|
Ab |-0---------0---0-|-(0)-|-0-----------------0-|-(0)-|
Eb |-----------------|-----|---------------------|-----|

Verse:
Guitar I
     Q S S S S g E E E E    H. S E.
eb |---------------------|---------|
Bb |---------2-2h3-2---2-|-(2)-2-2-|
Gb |-------2---------2-2-|-(2)-2-2-|
Db |---0h2-------------4-|-(4)-4-4-|
Ab |-0-------------------|---------|
Eb |---------------------|---------|

     Q S S S S g E E E E    H. S E.
eb |---------------------|---------|
Bb |---------2-2h3p2---3-|-(3)-3-3-|
Gb |-------2---------2-2-|-(2)-2-2-|
Db |---0h2-------------4-|-(4)-4-4-|
Ab |-0-------------------|---------|
Eb |---------------------|---------|

Chorus:
Guitar II
     E E E E E E E E   E E E E E E E E S S
eb |-2-2-2-2-2-2-2-2-|-2-2-2-2-2-2-2-2-2-2-|
Bb |-3-3-3-3-3-3-3-3-|-3-3-3-3-3-3-3-3-3-3-|
Gb |-2-2-2-2-2-2-2-2-|-2-2-2-2-2-2-2-2-2-2-|
Db |-0-0-0-0-0-0-0-0-|-0-0-0-0-0-0-0-0-0-0-|
Ab |-----------------|---------------------|
Eb |-----------------|---------------------|

     Q E. S E E  Q.    H..  S S
eb |----------------|-----------|
Bb |-2-2--2-2-2-(2)-|-(2)---3-2-|
Gb |-2-2--2-2-2-(2)-|-(2)---2-2-|
Db |-2-2--2-2-2-(2)-|-(2)---2-2-|
Ab |-0-0--0-0-0-(0)-|-(0)---0-0-|
Eb |----------------|-----------|

More coming soon...
Related for Hurt A Long Time tab