Song name
# A B C D E F G H I J K L M N O P Q R S T U V W X Y Z

Jerry Cantrell - Spder Bite tab

Jerry Cantrell
Spider Bite

Pre-Verse: (0:16)
eb|-------------------------------|
Bb|-------------------------------|
Gb|*-----------------------------*|
Db|*-----------------------------*|
Ab|--3v--0-0--0-0--0-0--0--0-0-0--|
Db|--3v--0-0--0-0--0-0--0--0-0-0--|
  PM-    .    .    .

Verse:
eb|------------------------------|
Bb|------------------------------|
Gb|*----------------------------*|
Db|*----------------------------*|
Ab|--3--0-0--0-0--0-0--0--0-0-0--|
Db|--3--0-0--0-0--0-0--0--0-0-0--|
  PM-   . .  . .  . .  .  . . .

Pre-Chours:
eb|---------|
Bb|---------|
Gb|---------|
Db|---------|
Ab|--5-4-3--|
Db|--5-4-3--|

Chours:
eb|-------------------|
Bb|-------------------|
Gb|*-----------------*|
Db|*-----------------*|
Ab|--0-0-5-0-0-3-0-5--|
Db|--0-0-5-0-0-3-0-5--|
  PM-. .   . .   .
Tap to rate this tab
 
# A B C D E F G H I J K L M N O P Q R S T U V W X Y Z