Guitaretab - guitar tabs
Song name
# A B C D E F G H I J K L M N O P Q R S T U V W X Y Z

Jerry Cantrell - Bargain Basement Howard Hughes tab

Bargain Basement
Jerry Cantrell
Degradation Trip

Tabbed by: Ryan
Email: Whiterabbit6573@aol.com

Tuning: Drop D, E Flat Tuning 

Intro

eb|---------------------------|
Bb|---------------------------|
Gb|--6/7----------------------|
Db|--6/7--555555--------------|
Ab|--4/5--555555-0------------|
Eb|-------555555-0------------|

[ Tab from: http://www.guitaretab.com/j/jerry-cantrell/74178.html ]
eb|------|-----------------------------------------------------|
Bb|------|-----------------------------------------------------|
Gb|------|-----------------------------------------------------|
Db|-5----|-----------------------------------------------------|
Ab|-5--5-|----0--0---/3---6--5--3--0--/3--6--5--0--0-----------|
Eb|-3--5-|----0--0---/3---6--5--3--0--/3--6--5--0--0-----------|


eb||:------------------------------------------------------------||
Bb||:------------------------------------------------------------||
Gb||:------------------------------------------------------------||
Db||:------------------------------------------------------------||
Ab||:---03h5--0-----03h5-6-------------------------------------||
Eb||:---03h5--0-----03h5-6-------------------------------------||




| /  slide up
| \  slide down
| h  hammer-on
| p  pull-off
| ~  vibrato
| +  harmonic
| x  Mute note
===============================================================================
Related for Bargain Basement Howard Hughes tab