Song name
# A B C D E F G H I J K L M N O P Q R S T U V W X Y Z

Jerry Goldsmith - The Ghost And The Darkness Theme tab

-------------------------------------------------------------------------------
The Theme From The Ghost And The Darkness  - Jerry Goldsmith
-------------------------------------------------------------------------------
Tabbed by: Kotonaruwind
E-mail: abandonedstrings@gmail.com

Tuning: Standard

(00:06 - 00:17)
e|---------------------------------------------------------------------------|
B|--17----------------17----17-18-17-15-17----------------17---17-18-17-15---|
G|-----17-17----17-17----17----------------17-17----17-17----17--------------|
D|-----------17----------------------------------17--------------------------|
A|---------------------------------------------------------------------------|
E|---------------------------------------------------------------------------|

e|---------------------------------------------------------------------------|
B|--17----------------17----17-18-17-15-17-15----15--------------------------|
G|-----17-17----17-17----17-------------------17----17-16-17-----------------|
D|-----------17--------------------------------------------------------------|
A|---------------------------------------------------------------------------|
E|---------------------------------------------------------------------------|

(00:24 - 00:35)
e|---------------------------------------------------------------------------|
B|--17----------------17----17-18-17-15-17----------------17---17-18-17-15---|
G|-----17-17----17-17----17----------------17-17----17-17----17--------------|
D|-----------17----------------------------------17--------------------------|
A|---------------------------------------------------------------------------|
E|---------------------------------------------------------------------------|

e|---------------------------------------------------------------------------|
B|--17----------------17----17-18-17-15-17-15----15--------------------------|
G|-----17-17----17-17----17-------------------17----17-16-17-----------------|
D|-----------17--------------------------------------------------------------|
A|---------------------------------------------------------------------------|
E|---------------------------------------------------------------------------|

(00:42 - 00:54)
e|---------------------------------------------------------------------------|
B|--17----------------17----17-18-17-15-17----------------17---17-18-17-15---|
G|-----17-17----17-17----17----------------17-17----17-17----17--------------|
D|-----------17----------------------------------17--------------------------|
A|---------------------------------------------------------------------------|
E|---------------------------------------------------------------------------|

e|---------------------------------------------------------------------------|
B|--17----------------17----17-18-17-15-17-15----15--------------------------|
G|-----17-17----17-17----17-------------------17----17-16-17-----------------|
D|-----------17----------------------------------------------17--------------|
A|---------------------------------------------------------------------------|
E|---------------------------------------------------------------------------|

(00:54 - 01:42)
e|---------------------------------------------------------------------------|
B|---------------------------------------------------------------------------|
G|--------------5--4--2------------------------------------------------------|
D|--5-----3--5-----------3--5--7----5-----3--5--3----------------------------|
A|-----7-------------------------------7-----------7--5----------------------|
E|---------------------------------------------------------------------------|

e|---------------------------------------------------------------------------|
B|---------------------------------------------------------------------------|
G|--------------5--4--5--2--2-4-5--2-----------------------------------------|
D|--5-----3--5------------------------5--3--2--5-----------------------------|
A|-----7------------------------------------------5--3-----------------------|
E|---------------------------------------------------------------------------|

(01:42 - 01:54)
e|---------------------------------------------------------------------------|
B|--17----------------17----17-18-17-15-17----------------17---17-18-17-15---|
G|-----17-17----17-17----17----------------17-17----17-17----17--------------|
D|-----------17----------------------------------17--------------------------|
A|---------------------------------------------------------------------------|
E|---------------------------------------------------------------------------|

e|---------------------------------------------------------------------------|
B|--17----------------17----17-18-17-15-17-15----15--------------------------|
G|-----17-17----17-17----17-------------------17----17-16-17-----------------|
D|-----------17----------------------------------------------17--------------|
A|---------------------------------------------------------------------------|
E|---------------------------------------------------------------------------|

Almost the same flute part at 00:06, 00:24, 00:42, 01:42 and different horns part at 00:54,
hope it was helpful for someone if you have some doubts or improvements don't 
hesitate to tell me:)
Tap to rate this tab
# A B C D E F G H I J K L M N O P Q R S T U V W X Y Z