Song name
# A B C D E F G H I J K L M N O P Q R S T U V W X Y Z

Jerry Goldsmith - Star Trek First Contact tab

e|----------|-------------------|-------------|
B|----------|10--------------11-|-11-10-8-----|
G|-7/9-10~--|---10----7~--10----|---------7-9~|
D|----------|------10-----------|-------------|
A|----------|-------------------|-------------|
E|----------|-------------------|-------------|


Verse 2
e|-------------------|--------|---------|------------|
B|-------------------|-13-11--|-13-10-8~|---10-------|
G|----10--9-10----10-|--------|---------|------10-7~-|
D|-10----------10----|--------|---------|------------|
A|-------------------|--------|---------|------------|
E|-------------------|--------|---------|------------|

e|---------------8-10~|-----------------------|
B|--------------------|-11-10-8---------------|
G|-7/9-10---9-10------|------------10~--------|
D|--------------------|---------10------------|
A|--------------------|-----------------------|
E|--------------------|-----------------------|


Middle Bit
e|-10-13-12-13--10------|--10-13-12-13--10--15~-|
B|----------------------|-----------------------|
G|-----------------12~--|-----------------------|
D|----------------------|-----------------------|
A|----------------------|-----------------------|
E|----------------------|-----------------------|

e|--10-11~------11-10-11~-|----11-15-13------------|
B|-----------13-----------|-13----------15--13~----|
G|------------------------|------------------------|
D|------------------------|------------------------|
A|------------------------|------------------------|
E|------------------------|------------------------|


Verse 3
e|---|----------------|--------|---------|------------|
B|---|----------------|-13-11--|-13-10-8~|---10-------|
G|---|-10--9-10----10-|--------|---------|------10-7~-|
D|-10|----------10----|--------|---------|------------|
A|---|----------------|--------|---------|------------|
E|---|----------------|--------|---------|------------|

e|---------------8-10~|----------------------|
B|--------------------|-11-10-8--------------|
G|-7/9-10---9-10------|----------------------|
D|--------------------|---------10~----------|
A|--------------------|----------------------|
E|--------------------|----------------------|


Outro
e|----------------------|-------------------------------------|
B|-10-10----13~---12----|---10-10----13~---12-----------------|
G|-------10---------12--|---------10---------12-----10~-------|
D|----------------------|-------------------------------------|
A|----------------------|-------------------------------------|
E|----------------------|-------------------------------------|

Tabbed By Stuart Macintosh
Tap to rate this tab
# A B C D E F G H I J K L M N O P Q R S T U V W X Y Z