Song name
# A B C D E F G H I J K L M N O P Q R S T U V W X Y Z

Jerry Reed - Jerrys Breakdown tab

-7-5---0---0-----0-------------------------------0--------0-|
-----8---9---7------0---0------0--------0-----------7--8----|
---------------8------7----6------0---------6--7------------|
-----------------------------8-------7----------------------|
------------------------------------------------------------|
------------------------------------------------------------|


------0----------0-----7--5-----0---0-------0---------------|
-7------0--------------------8----9---7-------0----0--------|
---8-------5--6--------------------------8------7-----6-----|
---------------------------------------------------------8--|
------------------------------------------------------------|
------------------------------------------------------------|


---------------0---------0---------------5--------0---|
-0-------7--------7---------0-------0-------0-------0-|
---0--------6--------6----------------7--------8------|
------8--------------------------9--------------------|
------------------------------------------------------|
------------------------------------------------------|
Tap to rate this tab
 
# A B C D E F G H I J K L M N O P Q R S T U V W X Y Z