Song name
# A B C D E F G H I J K L M N O P Q R S T U V W X Y Z

Jerry Reed - Two Timin tab

BLUESLAND
Jerry Reed

Tuning D-A-D-G-B-E
Capo 2nd Fret (E-B-E-A-C#-F#)

 | 1 + 2 + 3 + 4 + | 1 + 2 + 3 + 4 + | 1 + 2 + 3 + 4 + | 1 + 2 + 3 + 4 + |

E|-----------------|-----------------|-----------------|-----------------|
B|-5---5---5---5---|-5---5---5---5---|-5---5---5---5---|-5---5---5---5---|
G|-3---3---3---3---|-3---3---3---3---|-3---3---3---3---|-3---3---3---3---|
D|-----------------|-----------------|---4---2---------|---4---2---------|
A|-----------------|-----------------|-----------------|-----------------|
D|-----------------|-----------------|-4---------2---3-|-4---------2---3-|

                                       S
 | 1 + 2 + 3 + 4 + | 1 + 2 + 3 + 4 + || 1 + 2 + 3 + 4   +  |   1 + 2 + 3 + 4 + |

E|-----------------|-----------------||-0-----0-1-2-5-7/10-|-1h2---------------|
B|-5---5---5---5---|-5-------3-------||---2-3--------------|-----0---3---------|
G|-3---3---3---3---|-3-------3-------||.-------------------|---------1---------|
D|---4---2---------|-----------------||.-------------------|-------------0-----|
A|-----------------|-----------------||--------------------|---0-----------2---|
D|-4---------2---3-|-4-----------0-1-||-2-------1----------|-------0-2-------4-|

 | 1 + 2 + 3 + 4 + | 1 + 2 + 3 + 4 + | 1 + 2 + 3 + 4 + |   1 + 2 + 3 + 4 + |

E|-------------2-5-|-----------------|-0-----0-1-2-5-7-|-1h2---5-4---------|
B|-5-7-5-3---5-----|-5-3-2-0---2-----|---2-3-----------|-----0-----------0-|
G|-------3---------|-------------3---|-----------------|-----------------0-|
D|-----------------|---------------4-|-----------------|-------------------|
A|-----------------|-2---0-----------|-----------------|---0---------------|
D|-5-------4-------|---------5---4---|-2-------1-------|-------0-2---2-4---|

                    C                                    Solo: 1:48
 | 1 + 2 + 3 + 4 + | 1 + 2 + 3 + 4 + || 1 + 2 + 3 + 4 + | 1 + 2 +  3 + 4 + |
                   |1.                |2.               |
E|-----------------|-----------------||-----------7-6-5-|(5)---------5-----|
B|(0)----------0---|-----5-3---------||-----5-3---------|--------6h7---7---|
G|(0)--0---0-2-----|-3-----4--------.||-3-----4---------|------------------|
D|---4---4---------|-4--------------.||-4---------------|-------7----------|
A|-----------------|---4-1-2---------||---4-1-2---------|-0----------------|
D|-5-----5-2---3---|-4---------0-1---||-4---------------|------------------|

 | 1 + 2 + 3 + 4 + | 1 + 2 + 3 + 4 + | 1 + 2 + 3 + 4 + | 1 + 2 + 3 + 4 + |

E|-6-----6-----6---|-5-----5-----5---|---5---5---------|-4---------------|
B|-5-----5-----5---|-4-----4-----4---|---4---4---------|-----4-5---5-----|
G|---------6-------|---------6-------|-6---------------|---------4---4-3-|
D|-4-6-5-4---6-4---|-4-6-5-4---6-4-6-|---6-5-4---------|-2-4-5-6---------|
A|-----------------|-----------------|-----------------|-------------5-4-|
D|-----------------|-----------------|-----------------|-----------------|

 | 1 + 2 + 3 + 4 + | 1     + 2 + 3    + 4 + | 1 + 2 + 3 + 4 + | 1 + 2 + 3 + 4 + |

E|-------------2---|-5p3p2h3---2------------|---------5-7-8-9-|(9)8-7-5-4-5-----|
B|-----4-5---5---5-|---------4---5p3p2--2---|---0-1-2---------|-----------------|
G|-2-4-------------|------------------5---2-|(2)--------7-8-9-|(9)8-7-6-5-6-----|
D|-----------------|------------------------|-----------------|-----------------|
A|-----3-2---------|-0----------------------|-0---------------|-0---------------|
D|-------------2---|------------------------|-----------------|-----------------|

 | 1 + 2 + 3 + 4 + | 1 + 2 + 3 + 4 + | 1 + 2 + 3 + 4 + | 1 + 2 + 3 + 4 + |

E|-6-----6-----6---|-5-----5-----5---|---5---5---------|-4---------------|
B|-5-----5-----5---|-4-----4-----4---|---4---4---------|-----4-5---5-----|
G|-------6---------|-----------------|-----------------|---------4---4-3-|
D|-4-6-5-----4-6---|-4-6-5-4---4-----|-4-6-5-4---------|-2-4-5-6---------|
A|-----------------|---------5-------|-----------------|-------------5-4-|
D|-----------------|-----------------|-----------------|-----------------|

                                           D.S. al Coda  C 2:34
 | 1 + 2 + 3 + 4 + | 1 + 2 + 3 + 4 + | 1 + 2 + 3 + 4 + || 1 + 2 + 3 + 4 + |

E|-------------2-5-|(5)----3-2-----2-|-0---------------||-----------------|
B|-----4-5---5-----|---2-0-----------|-2-------5-------||-----5-3---------|
G|-2-4-------------|-----------2-0---|-0-------3-------||-3-----4---------|
D|-----------------|-----------------|-----------------||-4---------------|
A|-----3-2---------|-0---------------|-0-----------0-1-||---4-1-2---------|
D|-------------2---|-----------------|---------4-------||-4---------------|

 | 1 + 2 + 3 + 4 + | 1 + 2 + 3 + 4 + | 1 + 2 + 3 + 4 + | 1 + 2 + 3 + 4 + |

E|-----------------|-----------------|-----------------|-----------------|
B|-5---5---5---5---|-5---5---5---5---|-5---5---5---5---|-5---5---5---5---|
G|-3---3---3---3---|-3---3---3---3---|-3---3---3---3---|-3---3---3---3---|
D|-----------------|-----------------|---4---2---------|---4---2---------|
A|-----------------|-----------------|-----------------|-----------------|
D|-----------------|-----------------|-4---------2---3-|-4---------2---3-|

 | 1 + 2 + 3 + 4 + | 1 + 2 + 3 + 4 +   | 1 + 2 + 3   + 4 + |   1 + 2 + 3 +     4 |

E|-----------------|-------------------|-------------------|-----7-5-------------|
B|-5---5---5---5---|-5-3-2-0---2-------|-3-3-5-3-5b7b5-3---|-5/7-----7-7p5p3-----|
G|-3---3---3---3---|-------------3h4p3-|-4---------------4-|-----------------2/4-|
D|---4---2---------|-------------------|-4-----------------|---------------------|
A|-----------0---1-|-2---0-------------|-2-----------------|---------------------|
D|-4---------------|---------5---4-----|-------------------|---------------------|

Key:
S = Segno
C = Coda
h = Hammer on
p = Pull off
b = Bend
/ = Slide

The solo is the B section solo, 2nd time round, from 1:48.
Transcribed by Deadhbh Harrington.
Tap to rate this tab
 
# A B C D E F G H I J K L M N O P Q R S T U V W X Y Z