Guitaretab - guitar tabs
Song name
# A B C D E F G H I J K L M N O P Q R S T U V W X Y Z

Jerry Reed - Bandit tab

-------------------------------------------------------------------------------
			     Bandit - Peter Green
-------------------------------------------------------------------------------
(Fleetwood Mac's Peter Green, by himself) http://www.fleetwoodmac.net/
Tabbed by: James Van Rooyen
Email: Strong_wizard at hotmail.com

Tuning: Standard EADGBE

Chords:
      Am   C     F     G   E
e|----5----8-----1----3---0--------------------------|
B|----5----8-----1----3---0--------------------------|
G|----5----9-----2----4---1--------------------------|
D|----7----10----3----5---2--------------------------|
A|----7----10----3----5---2--------------------------|
E|----5----8-----1----3---0--------------------------|


Slow strum, with a quick down-up-down before changing to the next.


	Am		    C		 Am
e|---------------------------------------------------|
B|-------------------------------------0h1-----------|
G|----------------------------------------2----------|
D|---5/7-7-9-7h9p7/5-5--5-7-5h7p5----------2---------|
A|-7-----------------------------7-------------------|
E|---------------------------------------------------|
					\----strum guitar-/
0:10
   Am		    C		  Am
e|----------------------------------------------------|
B|----------------------------------------------------|
G|----------------------------------------------------|
D|--5-7-7-9-7h9p7-5-5-7--7p5-------------------------|
A|-7--------------------------7--5h7-5h7-5h7-5h7-5h7-|
E|----------------------------------------------------|

0:21       F	 G          Am	             C	    Am
e|----------------------------------------------------|
B|-------------------------------0h1-----0h1----0h1---|
G|-----------------------------------2------0------2-|
D|----------------------------------------------------|
A|7p5-5---8~-8-1010/1212\7--------------------------|
E|---8-8-5--------------------------------------------|
                   \---/----------\-------------------|
			2nd guitar:  X3		     x2

0:44
   Am		    C		Am         E
e|--------------------------------------------------|
B|--------------------------------------------------|
G|--------------------------------------------------|
D|-7-7-9-7h9p7-5--5-7-5h7p5----------------------5--|
A|--------------------------7-7p5-5-7/10-77p5h7----|
E|-------------------------------8------------------|

	Am	     			C	  Am
e|--------------------------5------------------5----|
B|------15-15-15-15-15-15\--5--------15-15...\-5----|
G|------14-14-14-14-14-14\-----------14-14...\------|
D|---------------------------------12---------------|
A|-7/12---------------------------------------------|
E|--------------------------------------------------|
					   \--/
					    etc

1:15
   F       G                  Am~
e|--------------------------------------------------|
B|--------------------------------------------------|
G|--------------------------------------------------|
D|--------------------------------------------------|
A|-8--8-8/10-10-10/12-12/14~\12---------------------|
E|--------------------------------------------------|

[ Tab from: http://www.guitaretab.com/j/jerry-reed/79662.html ]
1:31	Tab compacts more now (notes are held longer, time between notes increases)
   E			 Am
e|--------------------------------------------------|
B|--------------------------------------------------|
G|--------------------------------------------------|
D|-------------------------------------------14-15--|
A|-7--7-7--7-8/10-10\8-7--/12-15p12h15-15/17--------|
E|--------------------------------------------------|

             C
e|------------------------------------------|
B|------------------------------------------|
G|------------------------------------------|
D|-14h15p14-/14-1214h15p14-12-14-12\10/12--|
A|------------------------------------------|
E|------------------------------------------|

1:48       Am
e|----------------------------------------------|
B|----------------------------------------------|
G|----------------------------------------------|
D|-14h15\10/17~----14-15-14h15p14\12~--1414h15-|
A|----------------------------------------------|
E|----------------------------------------------|


e|--------------------------------------------------|
B|--------------------------------------------------|
G|--------------------------------------------------|
D|-14h15p14-12\10-10/12-9h10-7/9-5\2-5\2-2-3-2h3p0--|
A|--------------------------------------------------|
E|--------------------------------------------------|

1:58               F
e|---------------------------|
B|---------------------------|
G|---------------------------|
D|-2-0-2-0-2-0-2-2/3-5-5/7~--|
A|---------------------------|
E|---------------------------|

				         Am
e|--------------------------------------------------|
B|--------------------------------------------------|
G|--------------------------------------------------|
D|-----------------3-3-5-7/8~\7-7\3-/7-7-7-10-7-----|
A|-7-7-7/8-5\3-3-5----------------------------------|
E|--------------------------------------------------|


  					C		Am
e|---------------------------------------------------|
B|----13--1313p10-8-10\-----------------------------|
G|-14------------------------------------------------|
D|-14------------------------------------------------|
A|---------------------------------------------------|
E|---------------------------------------------------|


2:26
   Am                              C
e|--------------------------------------------------|
B|--------------------------------------------------|
G|--------------------------------------------------|
D|--7-7h9-7h9p7-5-5-7-5h7p5-------------------------|
A|-------------------------7------------------------|
E|--------------------------------------------------|

  Am		F		G      etc
e|--------------------------------------------------|
B|--------------------------------------------------|
G|--------------------------------------------------|
D|--------------------------------------------------|
A|--------------------------------------------------|
E|--------------------------------------------------|


While second guitar does these:
e|----------------------------------------------------|
B|--0h1-----1-----------------------------------------|
G|------2----2----------------------------------------|
D|------------2---------------------------------------|
A|----------------------------------------------------|
E|----------------------------------------------------|
    \-1-/    \2/


| /  slide up
| \  slide down
| h  hammer-on
| p  pull-off
| ~  IN THIS TAB's CASE 'leave for a bit' (vibrato if you want)
| +  harmonic
| x  Mute note
===============================================================================
Related for Bandit tab