Jerry Toth - Hockey Night In Canada Original tab

INTRO
e--------------------------------|
B--------------------------------|
G---------------------------5-5-3|
D-----5-5-3------5-5-3--5-5-3-3-1|
A-5-5-3-3-1--5-5-3-3-1--3-3------|
E-3-3--------3-3-----------------|

e-------------------3----------3-4-3------------|
B---------6----------6-----3-6-------4-6-7-6---6|
G-333-3-----333-3------333-------------------6--|
D-333---5---333---5----333----------------------|
A-----------------------------------------------|
E-----------------------------------------------|

e-------------------3----------3-4-3---------------4-4-5-6-----|
B---------6----------6-----3-6-------4-6-7-6---6-6-------------|
G-333-3-----333-3------333-------------------6---------------3X|
D-333---5---333---5----333-----------------------------------3X|
A--------------------------------------------------------------|
E--------------------------------------------------------------|
Tap to rate this tab
 
# A B C D E F G H I J K L M N O P Q R S T U V W X Y Z