Song name
# A B C D E F G H I J K L M N O P Q R S T U V W X Y Z

Jersey - Untouchable tab

Intro

---------------------------------------------------------------
---------------------------------------------------------------
---------------------------------------------------------------
---------2-------------7-------------2-------------7-7-7-7-7-7-
-7-------2------4------5------7------2------4------5-5-5-5-5-5-
-5-------0------2-------------5------0------2------------------

---------------------------------------------------------------
---------------------------------------------------------------
---------------------------------------------------------------
--------2-2-2---------7-7-7---------2-2-2---------7-7-7--------
-7-7-7--2-2-2--4-4-4--5-5-5--7-7-7--2-2-2--4-4-4--5-5-5--------   repeat 
-5-5-5--0-0-0--2-2-2---------5-5-5--0-0-0--2-2-2---------------
 x x    x x    x x    x x    x x    x x    x x    x x 


tabbed by josh jo_br_13@hotmail.com

dont know if its right
but i couldnt find this song anywhere
Tap to rate this tab
 
# A B C D E F G H I J K L M N O P Q R S T U V W X Y Z