Song name
# A B C D E F G H I J K L M N O P Q R S T U V W X Y Z

Jersey - Faces In The Crowd tab

Help us improve GuitareTab! Take a short survey!
e|-----10--6------10--6------10--6------10--6-----10------------10----------|
B|------------8----------8-----------8---------8------8--6--10------10--6---|
G|---0----------------------------------------------------------------------|
D|--------------------------------------------------------------------------|
A|--------------------------------------------------------------------------|
E|--------------------------------------------------------------------------|

e|---10-----------13---------10--------------10--6-----10---6------10--6----|
B|--------10--6--------10--6-----10---6--------------8----------8---------8-|
G|----------------------------------------0---------------------------------|
D|--------------------------------------------------------------------------|
A|--------------------------------------------------------------------------|
E|--------------------------------------------------------------------------|

e|---10--6-------10----------------10-------10------------10-----------13---|
B|-----------8---------8---6---10-----10---------10----6------10--6---------|
G|--------------------------------------------------------------------------|
D|--------------------------------------------------------------------------|
A|--------------------------------------------------------------------------|
E|--------------------------------------------------------------------------|
Related for Faces In The Crowd tab