Song name
# A B C D E F G H I J K L M N O P Q R S T U V W X Y Z

Jesper Kyd - Welcome To Fyrestone tab

Welcome To Fyrestone - Jesper Kyd

Tabbed by: TheTroy
Tuning: Standard

this is pretty accurate by my ears. as long as you add the needed effects
then it sounds very close.

Intro 00:51  (x2)
e|---------------------------------------------------------------------------|
B|---------------------------------------------------------------------------|
G|----------------------------------------------------6--4-------------------|
D|-----6-4--6--4--------4--6-----------6--8--6------8--------4---------------|
A|---6--------------4-6-------6------6------------6--------6-----------------|
E|-4--------------4--------------4-6------------4----------------------------|

Part 2
e|---------------------------------------------------------------------------|
B|---------------------------------------------------------------------------|
G|-----11-----------------------10-------------------------11--------16~-----|
D|---------11/13~-----11-13---------11/13~-------11h13---------11/13---------|
A|-11-----------------------11----------------14-------11--------------------|
E|---------------------------------------------------------------------------|

e|---------------------------------------------------------------------------|
B|---------------------------------------------------------------------------|
G|------------10-------------------------------------------------------------|
D|-11/13----------11/13~-------11h13~----------------------------------------|
A|--------11----------------14-----------------------------------------------|
E|---------------------------------------------------------------------------|

Part 3  sb = slight bend
e|---------------------------------------------------------------------------|
B|---------------------------------------------------------------------------|
G|-13~-------15sb~-------16~--------18~--------------------------------------|
D|---------------------------------------------------------------------------|
A|---------------------------------------------------------------------------|
E|---------------------------------------------------------------------------|



************************************

| /   slide up
| \   slide down
| h   hammer-on
| p   pull-off
| ~   vibrato
| +   harmonic
| x   Mute note
| b   Bend
| pb  Pre-bend
| br  Bend release
| pbr Pre-bend release
| brb Bend release bend

************************************
Tap to rate this tab
# A B C D E F G H I J K L M N O P Q R S T U V W X Y Z