Song name
# A B C D E F G H I J K L M N O P Q R S T U V W X Y Z

Jesper Kyd - Welcome To Fyrestone tab

-----------------------------------------------------------------------------
			     Welcome To Fyrestone - Borderlands OST
-----------------------------------------------------------------------------

I was bored, so I took some time to figure out a memorable song from Borderlands 1. Welcome To Fyrestone.

Tuning:
Guitar I - Acoustic: Standard E A D G B E
Guitar II - Chorus + Delay: Standard E A D G B E
Guitar III - Steel Acoustic: Standard E A D G B E
Guitar IV - Distorted: Standard E A D G B E

[Guitar IV only plays one power chord: Ab5] 

[0:00] Ambient Noise (Intro)

[0:52] Main Riff

Guitar I

   p
E|----------------|----------------|----------------|-------------------|
B|----------------|----------------|----------------|-------------------|
G|----------------|----------------|--------1-------|-------------------|
D|-----6-4--4/6-4-|-------4--4/6-4-|-------6--6/8-6-|-----8-----6/9-8-6-|
A|---6------------|---4-6----------|---4-6----------|---6-----6---------|
E|-4--------------|-4--------------|-4--------------|-4-----4-----------|

Guitar I Plays through bridge, but is deafened out by the other parts.

Guitar II (Periodically)
   p
E|-------------|
B|-------------|
G|-------------|
D|-------------|
A|-5/11~--(11)-|
E|-------------|

Guitar III (After riff is played thrice) [1:14]

   p
E|------------------------------------------------------------|
B|------------------------------------------------------------|
G|-11--13--11-------------------------------------------------|
D|------------11-13--------------11-13-----11/15--11-13---(13)|
A|------------------11--(11)------------11--------------------|
E|------------------------------------------------------------|

Then [1:24]

E|------------------------------------------------------------------------|
B|-------------------------12~--(12)--------------------------------------|
G|---------11/13--11------------------------------------------------------|
D|-------------------11-13--------------11-13-----13/15--11-13--(13)------|
A|-11-13---------------------------------------11------------------11-13--|
E|------------------------------------------------------------------------|


Bridge [1:38]

Guitar 1 still plays (albeit quieter)
Guitar 2 is silent

Guitar III
   f
E|------------------------------|
B|------------------------------|
G|-13~-----15~------16~------18~|
D|------------------------------|
A|------------------------------|
E|------------------------------|

Breakdown [1:49]

Guitar II
   
   f       >> pp 
E|---------------------|
B|---------------------|
G|---------------------|
D|---------------------|
A|-5--/--11~-----(11)--|
E|---------------------|
 |
 |Guitar IV
 |
 | ff      >> p        
E|---------------------|
B|---------------------|
G|---------------------|
D|-6--------(6)--------|
A|-6--------(6)--------|
E|-4--------(4)--------|


LEGEND:
(#) - sustained note
ff  - Fortissimo (play loud, like a metal band)
f   - Forte (play loud, like a rock band)
p   - Piano (Play softly, like a country blues performer)
pp  - Pianissimo (Play almost silently, like a jazz blues club)
>>  - Volume fade
<<  - Volume swelling
~   - Vibrato
/   - Slide up
\   - Slide down
Tap to rate this tab
# A B C D E F G H I J K L M N O P Q R S T U V W X Y Z