Song name
# A B C D E F G H I J K L M N O P Q R S T U V W X Y Z

Jesse And The Rockers - Great Tom tab

Help us improve GuitareTab! Take a short survey!
Artist: Jesse and the Rockers
Title: Great Tom
Cd: T.I.N., Madison Road
Screaming Giant Records
Copyright 1998, 1999
Tabbed by Nathan Buchanan nathan_camo@yahoo.com
          Justin Hollifield tworedhitopshoes@yahoo.com

INTRO/VERSE-BASS 3x with no guitar
  A#          F               G#          D#
E-------------1-1-1-1-1-1-1-1-4-4-4-4-4-4-----------------|
A-1-1-1-1-1-1-----------------------------6-6-6-6-6-6-6-6-|
D---------------------------------------------------------|
G---------------------------------------------------------|

2x with guitar
  A#          F               G#          D#
E-------------1-1-1-1-1-1-1-1-4-4-4-4-4-4-----------------|
A-1-1-1-1-1-1-3-3-3-3-3-3-3-3-6-6-6-6-6-6-6-6-6-6-6-6-6-6-|
D-3-3-3-3-3-3-3-3-3-3-3-3-3-3-6-6-6-6-6-6-8-8-8-8-8-8-8-8-|
G-3-3-3-3-3-3-----------------------------8-8-8-8-8-8-8-8-|
B---------------------------------------------------------|
e---------------------------------------------------------|

bass only 2x
guitar and bass 4x

guitar solo bass continues to play
               Play 4x
E------------------------------------------------------------------------------------|
A------------------------------------------------------------------------------------|
D-------------------15-15-15-15-15-15-15-15-18-18-18-18-18-18------------------------|
G-15-15-15-15-15-15-------------------------------------------20-20-20-20-20-20-20-20|
B------------------------------------------------------------------------------------|
e------------------------------------------------------------------------------------|

guitar plays A#,F,G#,D# 2x with no bass
then both 4x
end on A#
Related for Great Tom tab