Song name
# A B C D E F G H I J K L M N O P Q R S T U V W X Y Z

Jesse Barrera - If Youre Ready tab

Help us improve GuitareTab! Take a short survey!
If You're Ready
Jesse Barrera




Standard Tuning

Intro/Verse
|--------------------|
|--------------------|
|-------9----9-------|  2x Intro
|--8----9----8-------|  4x Verse
|--9---------9-------|
|--7----9------------|


Chorus 1x
|--4----2----2----4----|
|--5----2----4----4----|
|--4----3----3----4----| 
|--6----4----4----6----|
|--4----4----2----6----|
|--4----2----2----4----|

|--4----2--|
|--5----2--|
|--4----3--|         
|--6----4--|           
|--4----4--|
|--4----2--|


Back to Intro/verse
Chorus

Bridge
|-------2----2----4----|      |---------2----|
|-------2----4----4----|      |---------2----|
|--1----3----3----4----|      |----1----3----|  2x
|--2----4----4----6----|  1x  |----2----4----|
|--2----4----2----6----|      |----2----4----|
|-------2----2----4----|      |---------2----|

Chorus

"At home for me.."
|--4---------|
|--4---------|
|--4---------|
|--6----8----|
|--6----9----|
|--4----7----|

Chorus

end with this chord
|------|
|------|
|------|
|-8----|
|-9----|
|-7----|

Any Questions email me at Am0911@aol.com
Related for If Youre Ready tab