Song name
# A B C D E F G H I J K L M N O P Q R S T U V W X Y Z

Jesse Barrera - The Feeling tab

The Feeling
Transcribed by Michael Timog


These aren't the exact chords, but this is how I play it.

http://www.youtube.com/watch?v=mFw5AJvj_H4

Guitar: Standard Tuning, Capo on 2d Fret.

(Frets relative to capo)

Just listen for the strumming

Intro Part:

e--0----0-----0----0-|
b--0----0-----0----0-|
g--6---s8-----9----1-|
d--7---s9-----9----2-|
a--0----0-----0----2-|
e------------------0-|


Pre Chorus

e--0--0--0--0--0-|
b--0--0--0--0--0-|
g--2--4--5--6--2-|
d--2--4--4--6--2-|
a--0--2--3--4--0-|
e----------------|


Chorus

e--0--0--0--|
b--0--0--0--|
g--1--2--2--| x2
d--2--2--2--|
a--2-----0--|
e--0--2-----|


e----0--0--|
b----0--0--|
g----2--2--| x2
d----2--2--|
a-------0--|
e----2-----|

Bridge

e--0--0--0--0--|                     ---2--0--|
b--0--0--0--0--|                     ---2--0--|
g--1--6--4--2--|                     ---2--2--|
d--2--6--4--2--|   then the last part---4--2--|
a--2--4--2--0--|                     ---4--0--|
e--0-----------|                     ---2-----|


Have fun!
Tap to rate this tab
# A B C D E F G H I J K L M N O P Q R S T U V W X Y Z