Song name
# A B C D E F G H I J K L M N O P Q R S T U V W X Y Z

Jesse Barrera - Try tab

-------------------------------------------------------------------------------
			     Try - Jesse Barrera
-------------------------------------------------------------------------------
Tabbed by: Michael Timog
Email: Ilikecheeserolls@aol.com

Tuning: Half step down

http://www.youtube.com/watch?v=FKpCEpKkVyM&feature=channel_page

I'll put the solo part up once I really know it, haha.

This is it for the most part; just listen for the timing.

Intro/Verse
e|---------------------------------------------------------------------------------------|
B|---------------------------------------------------------------------------------------|
G|-4-----2--4--4-----2--4--5--5----------------------------------------------------------|
D|-0-----0--0--0-----0--0--5--5----------------------------------------------------------|
A|---------------------------------------------------------------------------------------|
E|-3--3--3--3--2--2--2--2--5--5----------------------------------------------------------|

Chorus
e|---------------------------------------------------------------------------------|
B|---------------------------------------------------------------------------------|
G|-12--7--5------------------------------------------------------------------------|
D|-12--7--5------------------------------------------------------------------------|
A|---------------------------------------------------------------------------------|
E|-12--7--5------------------------------------------------------------------------|

Last time around for chorus
e|------------------------------------------------------------------------------------|
B|------------------------------------------------------------------------------------|
G|-12--7--7s6--5----------------------------------------------------------------------|
D|-12--7--7s6--5----------------------------------------------------------------------|
A|------------------------------------------------------------------------------------|
E|-12--7--7s6--5----------------------------------------------------------------------|


===============================================================================
Tap to rate this tab
# A B C D E F G H I J K L M N O P Q R S T U V W X Y Z