Song name
# A B C D E F G H I J K L M N O P Q R S T U V W X Y Z

Jesse Barrera - Colors tab

Song: Colors
Artist: Jesse Barrera
Tabbed By: Arvin Hufana

Capo on the 6th Fret. These are the only chord pattern in the song,
Just figure out the sequence :D


Intro/Chorus:
e|------------------|
B|---0---0---0---0--|
G|---1---4---4---4--|
D|---2---4---2---2--|
A|---2---2---4---0--|
E|---0---X---X---X--|


Verse:
e|-----------------|
B|---0----4----0---|
G|---1----4----4---|
D|---2----2----2---|
A|---2----4----0---|
E|---0----X----X---|

Pre Chorus:
e|------------------|
B|---0---0---0---0--|
G|---2---4---4---4--|
D|---2---4---2---4--|
A|---X---X---0---2--|
E|---2---4---X---X--|
Tap to rate this tab
 
# A B C D E F G H I J K L M N O P Q R S T U V W X Y Z