Song name
# A B C D E F G H I J K L M N O P Q R S T U V W X Y Z

Jesse Clegg - Heartbreak Street chords

Highlighted       Show chord diagrams
Heartbreak Street - Jesse Clegg
Tabs by J French

Capo 3rd

Intro

e|---------------------------------------------------------------------|
B|-------15--15--15--15---------15--15--15--15--------13--13--13--13---|
G|-----12--12--12--12--12----12--12--12--12--12-----15--15--15--15--15-|
D|---15-------------------15---------------------15--------------------|
A|---------------------------------------------------------------------|
E|---------------------------------------------------------------------|

e|--------------------------|
B|-------13--13--13--13-----|
G|-----15--15--15--15--15---|
D|---17---------------------|
A|--------------------------|
E|--------------------------|

(Em)      
Ashtrays and cigarettes 
(C)
Slow mo smoke silhouettes
(D)                        (Asus2)  
Time stops and starts again for no man 

(Em)
Dim, flickering street lights
(C) 
Phone booth rings through the night
(D)                         (Asus2)
People walk past but no one answers 

(Em) (C) (D) (Asus2)
Yeah (x3) 

Rif for Chorus
Use virbrato and any other technique you wish to make it sound better
This comes in just before the strumming for the chorus
e|----------------------------------------------------|
B|---8/10-------------------------6/8-----------------|
G|--------9---------------7-----------9------------7--|
D|-----------7--9--10--7--------------------9--10-----|
A|----------------------------------------------------|
E|----------------------------------------------------|

(Em)     (G)
Welcome to
(Dsus2)            (Asus2)       (Em)      
The Heartbreak Street
          (G)                   (Dsus2)          
Where your sorrow leaves you behind 
         (Asus2)           (Em)     (G)
And your life starts again 
(Em)          (G)
Starts again (x3) 

On the last starts again go from G to Asus2 and let it ring

(Em) 
Sirens and fireflies 
(C)
Silence can't tell us lies
(D)                       (Asus2)
Torn, crumpled map on the dashboard 


(Em)
Lights change from green to red 
(C)
Long, lonely road ahead
(D)                           (Asus2)
Watching the world through my glass window

(Em) (C) (D) (Asus2)
Yeah (x3)

(Em)     (G)
Welcome to
(Dsus2)            (Asus2)       (Em)      
The Heartbreak Street
          (G)                   (Dsus2)          
Where your sorrow leaves you behind 
         (Asus2)           (Em)     (G)
And your life starts again 
(Em)          (G)
Starts again (x3)

On the last starts again go from G to Asus2 and let it ring

(Em) (G) (Dsus2) (Asus2)

(Em)      (G)
Welcome to
(Dsus2)        (Asus2)      (Em)
The Heartbreak Street
(Background lyric)starts again
      (G)    (Dsus2)    (Asus2)
Welcome to

(Em)      (G)
Welcome to
(Dsus2)        (Asus2)      (Em)
The Heartbreak Street
(Background lyric)starts again
      (G)    (Dsus2)    (Asus2) Let the Asus2 ring out
Welcome to

Hope this is at least slightly correct but ye 
Tap to rate this tab
 
# A B C D E F G H I J K L M N O P Q R S T U V W X Y Z