Song name
# A B C D E F G H I J K L M N O P Q R S T U V W X Y Z

Jesse Cook - Brio tab

e|-----------------------------|
b|-----------------------------|
g|-----------------------------|
d|-----6---7-6--------6---7-6--|
a|-7-9---------9--7-9---------9|
E|-----------------------------|

|------------------------------|
|------------------------------|
|------------------------------|
|--------6---------------------|
|---6-7-9---9-7-6h7p6----6-----|
|-9-------------------9-----7--|    Repeat


|------------------------------|
|------------------------------|
|---------------------6--------|
|-----------9-9-----6---9------|
|-7-7-7---------7-9------------|
|------------------------------|


|------------------------------|    |------------------------------|
|------------------------------|    |------------------------------|
|5\8---------------------------|    |------------------------------|
|----9-9--7-6---6--------------|    |------------------------------|
|-------------9----------------|    |-7-7\9-7-6--------------------|
|------------------------------|    |------------------------------|
                              Repeat and add the 2nd part to the end of it


                          That's the intro for Brio. :) Any comments or corrections please add
Tap to rate this tab
# A B C D E F G H I J K L M N O P Q R S T U V W X Y Z