Song name
# A B C D E F G H I J K L M N O P Q R S T U V W X Y Z

Jesse Cook - Tempest tab

This is from my good friend again, he only transcribed part of this song though. It's a
more then the intro, but it's not the whole thing. Just the main theme. It's a fun tab
So, enjoy! And once again, if you find anything wrong or wish to add something to it 
me an e-mail at: alex5101@live.ca and I'll send your message to my friend.

|---0-1---0-1-3---0-1---0-1-3---0-1---0-1-3-------------------0------------|
|---3-3---3-3-3---1-1---1-1-1---1-1---1-1-1---3---2---0h2---2--------------|
|---2-2---2-2-2---0-0---0-0-0-----------------2---2---2-----2--------------|
|-0-----0-------------------------------------2---2---2-----2--------------|
|---------------3-----3---------------------0---0---0-----0----------------|
|-----------------------------3-----3--------------------------------------|

|--------5-----5-----5-----5-----------3-----3-----3-----3----------1------|
|---8s/6---6p5---------5h6--------6s/5---5p3---------3h5-------5s/3---3p1--|
|----------------6h7---------7-----------------4h5---------5---------------|
|-0------------------------------------------------------------------------|
|-------------------------------3------------------------------------------|
|------------------------------------------------------------3-------------|

|-1-----1-----1------------------------------------------------------------|
|---------1h3---1----------------------------------------------------------|
|---2h3-----------3p2p0-2--------------------------------------------------|
|-------------------------5-3-2--------------------------------------------|
|--------------------------------------------------------------------------|
|--------------------------------------------------------------------------|
Tap to rate this tab
 
# A B C D E F G H I J K L M N O P Q R S T U V W X Y Z