Song name
# A B C D E F G H I J K L M N O P Q R S T U V W X Y Z

Jesse Cook - Cascada tab

#----------------------------------PLEASE NOTE---------------------------------#
#This file is the author's own work and represents their interpretation of the #
#song. You may only use this file for private study, scholarship, or research. #
#------------------------------------------------------------------------------##

From: Faisal
Subject: Jesse cook - Cascada (Intro Solo)
if there is any mistake so please email me
at messy_guy2005@hotmail.com

This is my version of Jesse Cook's Cascada
It's all from memory, so some of it can be wrong.
Remember This Is The Intro Solo Of The Song


 h - hammer on
 p - pull off
 b - bend string up
 r - release bend
 / - slide up
 \ - slide down
 v - vibrato (sometimes written as ~)
 t - right hand tap
 x - play 'note' with heavy damping


           ---------------------------------------------------
            J  E  S  S  E  C  O  O  K  -  C  A  S  C  A  D  A
           ---------------------------------------------------


  Repeat
E-------------------------------------------------------------------------|
B-------------------------------------------------------------------------|
G---------------12-12-13--------12-12/14---12--13h12h13--9----------------|
D---------10-9------------9---------------------------------12--10--------|
A---7-10------------------------------------------------------------------|
E-------------------------------------------------------------------------|


E-------------------------------------------------------------------------|
B--------12-12p10--10-10p8--8p7-10------10-10p8--8-8p7--5h7h8-------------|
G--11-9----------------------------9-7-------------------------7-5--------|
D-------------------------------------------------------------------------|
A-------------------------------------------------------------------------|
E-------------------------------------------------------------------------|


E-------------------------------------------------------------------------|
B--8-8p7--7-7p5--5p4-4--5-------------------------------------------------|
G-------------------------------------------------------------------------|
D-------------------------------------------------------------------------|
A-------------------------------------------------------------------------|
E-------------------------------------------------------------------------|
Tap to rate this tab
# A B C D E F G H I J K L M N O P Q R S T U V W X Y Z