Song name
# A B C D E F G H I J K L M N O P Q R S T U V W X Y Z

Jesse Harris - The Secret Sun tab

Verse + Intro

e|------------------------------------------|
B|------------------------------------------|
G|------------------------------------------|
D|-----------9h11h9------------9h11h9-------|
A|--9h11h9-0----------9h11h9-0--------------|
E|0-----------------0-----------------------| x6
Tabbed by Lamachief
Email : terreier_argh@hotmail.com

h - Hammer on

Chorus

e|------------------------------------------|
B|------------------------------------------|
G|------------------------------------------|
D|--9h11h9---9--9---------------------------|
A|0--------9-11-0---------------------------|
E|------------------------------------------|

Verse

e|------------------------------------------|
B|------------------------------------------|
G|------------------------------------------|
D|-----------9h11h9------------9h11h9-------|
A|--9h11h9-0----------9h11h9-0--------------|
E|0-----------------0-----------------------| x5

And it continues until the end of the song.

http://www.jesseharrismusic.com/

2011/12/16
Tap to rate this tab
 
# A B C D E F G H I J K L M N O P Q R S T U V W X Y Z