Song name
# A B C D E F G H I J K L M N O P Q R S T U V W X Y Z

Jesse Mccartney - De Toi Moi Just So Your Know tab

Highlighted       Show chord diagrams
Jesse McCartney  De Toi  Moi (Just So Your Know)

Tab by Naklane :)

Use The Capo 3 =p

------------------------------------------------------------------------


Chords:

 Em G Am  C  D

-0--3--0--0--2--|
-0--3--1--1--3--|
-0--0--2--0--2--|
-2--0--2--2--0--|
-2--2--0--3-----|
-0--3-----3-----|


------------------------------------------------------------------------


- Intro or interlude -


         Em              G                AM (Two down,One up =p) and C
e -------0---------------------------------------------------------------|
b -----------3-----------0----------------1-1-1------------------------1-|
g -----0---0------------------0-----------2-2-2------------------------0-|
d ---2----------------0---------0---------2-2-2------------------------2-|
a -----------------2--------------2------------------------------------3-|
e -0-------------3-----------------------------------------------------3-|

I thing it's Quite right :)


------------------------------------------------------------------------


- Verse 1 -


            Em
I shouldn't love you,
       G
but I want too.
Am               C
I just can't turn away.
            Em
I shouldn't see you,
       G
but I can't move.
Am           C
I can't look away.


- Refrain -


   Em       G
And I don't know,
     Am                C
how to be fine when I'm not.
     Em         G
Cause I don't know,
         Am
how to make the feeling stop.


- Chorus -


           C
De toi  moi
           G                   D
Il y a des choses qui n's'expliquent pas
                     Em
Tant elles se confondent
                   C                      G          D
Tant elles sont profondes, lgres  la fois
           C
De toi  moi
          G                   D
Il y a je crois des mots qui n'osent pas
                       Em
Des mots qui n'osent plus
                  C                    G             D
Et si nos amours dus semblaient savoir
          Em  G  Am  C Or the tab just like the intro or interlude.
De toi  moi


------------------------------------------------------------------------


- Verse 2 -


             Em
It's getting hard to,
      G
be around you.
   Am                C
There's so much I can't say.
        Em            G
Do you want me to have the feelings?
    Am              C
And look the other way.


- Refrain -


   Em       G
And I don't know,
     Am                C
how to be fine when I'm not.
     Em         G
Cause I don't know,
         Am
how to make the feeling stop.


- Chorus -


           C
De toi  moi
           G                   D
Il y a des choses qui n's'expliquent pas
                     Em
Tant elles se confondent
                   C                      G          D
Tant elles sont profondes, lgres  la fois
           C
De toi  moi
         G                   D
Il y a je crois des mots qui n'osent pas
                       Em
Des mots qui n'osent plus
                  C                    G             D
Et si nos amours dus semblaient savoir
          Em  G  Am  C Or the chords just like the intro or interlude.
De toi  moi


------------------------------------------------------------------------


- Bridge -


      Am            C
This emptiness is killin' me
      G                 D
I'm wonderin' why I've waited so long
Am               C        G
Lookin' back I realize, it was always there, just never spoken
   C
I'm waitin' here
 Am
Been waitin' here


- Interlude - Em  G  Am  C  Em  G  
 C


- Chorus -


           C
De toi  moi
           G                   D
Il y a des choses qui n's'expliquent pas
                     Em
Tant elles se confondent
                   C                      G          D
Tant elles sont profondes, lgres  la fois
           C
De toi  moi
         G                   D
Il y a je crois des mots qui n'osent pas
                       Em
Des mots qui n'osent plus
                  C                    G             D
Et si nos amours dus semblaient savoir
          Em  G  Am  C Or the chords just like the intro or interlude.
De toi  moi


----------------------------------------------------------------------------

Well, I'm French and it's my first tab, so I need your rates and comments to progress, 
and enjoy :)

-----------------------------------------------------------------------------
Tap to rate this tab
# A B C D E F G H I J K L M N O P Q R S T U V W X Y Z