Song name
# A B C D E F G H I J K L M N O P Q R S T U V W X Y Z

Jesse Mccartney - When You Wish Upon A Star tab

Tabbed this for Ryan. :] ILCFAE [only we know what that means]

Anyway, the strumming Pattern is: ↓↑↓↑
Hammer strings softly. 2/2 timing.

e|--5--------------------------5---------------------|
B|---------8-----7------8-------------8------7-------|
G|-----7-----7------7------7------7------7----7------|
G|----7-7---7-7----7-7----7-7----7-7----7-7----7-----|
A|----------------------------------------------7-5--|
E|---------------------------------------------------|

D D Em E7 
A A D D
D/F# D/F# Em Em
Asus 4 A D D

D D Em E7 
A A D D
D/F# D/F# Em Em
Asus 4 A D D

Em E7 A A
Em A D

D C#m Bm
Bm E E A
A A A D D

e|--5--------------------------5---------------------|
B|---------8-----7------8-------------8------7-------|
G|-----7-----7------7------7------7------7----7------|
G|----7-7---7-7----7-7----7-7----7-7----7-7----7-----|
A|----------------------------------------------7-5--|
E|---------------------------------------------------|

Eb Eb Fm Fm7
Bb Bb Bb/B Eb
Eb Fm Fm Bb Bb
Cm Cm F F
Eb EB Fm Fm
Bb Bb Cm Cm
Ab Fm Bb Eb Eb
Tap to rate this tab
 
# A B C D E F G H I J K L M N O P Q R S T U V W X Y Z