Guitaretab - guitar tabs
Song name
# A B C D E F G H I J K L M N O P Q R S T U V W X Y Z

Jesse Mccartney - Beautiful Soul tab

This song may look hard but idk idthink it is i havent tried it yet but i will soon srry 
so close it cause i didnt want to waste my house paper and didnt feel like spacing it 
after and its my first soo...
Here it is


Intro/Verse Part1

E ------0-------------------0-------------------0-------|
B -----------0-------------------3-------------------0--|
G -----2-------------------2-----2-------------2--------|
D ---2-------2-----------4-------0-----------2-------2--|
A -0----------------------------------------------------|
E -----------4---------2-------------------2---------4--|

E -----------------------0--------------0----------0------|
B ----------------------------0-------------3----------0--|
G -----2-----2---------2--------------2-----2-----2-------|
D ---2-----2---0------2-------2-----4-------0----2-----2--|
A -0-----4----------0-------------------------------------|
E ----------------------------4---2------------2-------4--|

E -----------------------------------------------------|
B -----------------------------------------------------|
G -----2------2--------2-------------------------------|
D ---2------2---0----2------0--------------------------|
A -0------4---------------------4---2------------------|
E -----------------------------------------------------|

E -------0-------------------0-------------------0------|
B -----------0-------------------3-------------------0--|
G -----2-------------------2-----2-------------2--------|
D ---2-------2-----------4-------0-----------2-------2--|
A -0----------------------------------------------------|
E -----------4---------2-------------------2---------4--|

E -----------------------0-----0---0--------------------|
B -----------------------------0------------------------|
G -------2-----2---------2---------2--------------------|
D -----2-----2----0------------2------------------------|
A ---0-----4-------------0---------0--------------------|
E -----------------------------4------------------------|

E ----0----------------0---0------0----0-----------------|
B ----------------0--------0-----------0-----------------|
G ----2-------2--------2----------2----------------------|
D ---------0---------------2-----------2-----------------|
A ----4----------------4----------0----------------------|
E -------------------------4-----------4-----------------|

E ---0------------0------0----0---0-------|
B ------------0---------------0-----------|
G ---2-----2------2------2--------2-------|
D ------0---------------------2-----------|
A ---0------------4------0--------0-------|
E ----------------------------4-----------|

E ----0-------------0-----0--0--0----0--------0--------0---|
B --------------0---0--------0-----------------------------|
G ----2------2------------2-----2----2------2----2-----2---|
D --------0---------2--------2----------0------------------|
A ----4-------------------0-----0----4-----------------4---|
E ------------------4--------4-----------------------------|

E ----0----0---0----0-----2---0---------------------0----|
B ---------0--------------5---0----2------2---------0----|
G ----2--------2----2-----2--------2------2--------------|
D ---------2--------------0---2----2------2-----2---2----|
A ----0--------0----4--------------0---0-----0-----------|
E ---------4------------------4---------------------4----|


E -------------------0---------0------------0------0------|
B --------0----------0---------0--------------------------|
G ------------------------------------------2------2------|
D --------2-----2----2-----2---2-------2----4------4------|
A ------------------------------------------4---4-----4---|
E ----4------4----------4----------4--------2-------------|

E ---------------------------------0------0----------0---|
B --3-----3-----------3----------------------------------|
G --2-----2-----------2------------2------2----------4---|
D --4--0--4---0---4---4----0---4---4------4-----4----2---|
A --5------------------------------4---4-----4-----------|
E ---------------------------------2-----------------4---|

E -----0---------0----------------------------0----------------|
B -----0---------0-------------------------------------0-------|
G ---------------------------2-------2--2-----2--------2-------|
D -----2-----2---2-----2----2-----2--2--2--0--2--0--2--2--0--2-|
A -------------------------0----4-------5----------------------|
E --4-----4---------4------------------------------------------|

E -----------------------0---------------0---------0-----0------|
B ---2-------2-----------0------0--------0----------------------|
G ---2-------2-------------------------------------2-----2------|
D ---2-------2------2----2------2----2---2-----2---4-----4---4--|
A ---0----0------0---------------------------------4---4---4----|
E -----------------------4---4-----4---------4-----2------------|

E -------------2---2--------0----0------0--------------0------|
B --3---3----------3--------------------------0--------0------|
G --2---2----------2--------2----2------4---------------------|
D --4---0---0---------0--4--4----4---4--2-----2-----2--2------|
A --5-----------------------4--4---4--------------------------|
E --------------------------2-----------4---4---4-------------|
[ Tab from: http://www.guitaretab.com/j/jesse-mccartney/53175.html ]
E --------0-------------------0----0---0---0-------0--0--0--0---|
B -----0---------0-----------------0------------------0-----0---|
G --------2----------------2--2--------2---2----2--------2------|
D -----2--2------2-----2---0-------2----------0-------2-----2---|
A --------0--0---2---0--------0--------0---4-------------0------|
E --4------------------------------4------------------4-----4---|

E --0--0----------0--0---0---0---0------0--0---0---0--0----0-----|
B ------------0---0------0-----------------0---0-----------------|
G --2--2-------------2-------2---2----2------------2--2---2------|
D ----------2-----2------2----------0------2---2--------0--------|
A --0--4--0----------0-------0---4-----------------0--4----------|
E ----------------4------4-----------------4---4-----------------|

E ---0---0--0---0---0------0--0--0--0--0--0--------0--0--------|
B ---0------0-----------------0-----0-----------------0--------|
G -------2------2---2----2-------2-----2--2-----2--------------|
D ---2------2----------0------2-----2---------0-------2--------|
A -------0------0---4------------0-----0--4--------------------|
E ---4------4-----------------4-----4-----------------4--------|

E ---0------------0------0----0---0-------|
B ------------0---------------0-----------|
G ---2-----2------2------2--------2-------|
D ------0---------------------2-----------|
A ---0------------4------0--------0-------|
E ----------------------------4-----------|

E ----0-------------0-----0--0------0-----------------0--|
B --------------0---0--------0----------------0----------|
G ----2------2------------2---------2------2----2-----2--|
D --------0---------2--------2----------0----------------|
A ----4-------------------0---------4-----------------4--|
E ------------------4--------4---------------------------|

E ----0----0---0----0-----2---0---------------------0----|
B ---------0--------------5---0----2------2---------0----|
G ----2--------2----2-----2--------2------2--------------|
D ---------2--------------0---2----2------2-----2---2----|
A ----0--------0----4--------------0---0-----0-----------|
E ---------4------------------4---------------------4----|


E -------------------0---------0------------0------0------|
B --------0----------0---------0--------------------------|
G ------------------------------------------2------2------|
D --------2-----2----2-----2---2-------2----4------4------|
A ------------------------------------------4---4-----4---|
E ----4------4----------4----------4--------2-------------|

E ---------------------------------0------0----------0---|
B --3-----3-----------3----------------------------------|
G --2-----2-----------2------------2------2----------4---|
D --4--0--4---0---4---4----0---4---4------4-----4----2---|
A --5------------------------------4---4-----4-----------|
E ---------------------------------2-----------------4---|

E -----0---------0----------------------------0----------------|
B -----0---------0-------------------------------------0-------|
G ---------------------------2-------2--2-----2--------2-------|
D -----2-----2---2-----2----2-----2--2--2--0--2--0--2--2--0--2-|
A -------------------------0----4-------5----------------------|
E --4-----4---------4------------------------------------------|

E -----------------------0---------------0---------0-----0------|
B ---2-------2-----------0------0--------0----------------------|
G ---2-------2-------------------------------------2-----2------|
D ---2-------2------2----2------2----2---2-----2---4-----4---4--|
A ---0----0------0---------------------------------4---4---4----|
E -----------------------4---4-----4---------4-----2------------|

E -------------2---2--------0----0------0--------------0------|
B --3---3----------3--------------------------0--------0------|
G --2---2----------2--------2----2------4---------------------|
D --4---0---0---------0--4--4----4---4--2-----2-----2--2------|
A --5-----------------------4--4---4--------------------------|
E --------------------------2-----------4---4---4-------------|

E --------0-------------------0----0---0---0-------0--0--0--0---|
B -----0---------0-----------------0------------------0-----0---|
G --------2----------------2--2--------2---2----2--------2------|
D -----2--2------2-----2---0-------2----------0-------2-----2---|
A --------0--0---2---0--------0--------0---4-------------0------|
E --4------------------------------4------------------4-----4---|

E --0--0----------0--0---0---0---0------0--0---0---0--0----0-----|
B ------------0---0------0-----------------0---0-----------------|
G --2--2-------------2-------2---2----2------------2--2---2------|
D ----------2-----2------2----------0------2---2--------0--------|
A --0--4--0----------0-------0---4-----------------0--4----------|
E ----------------4------4-----------------4---4-----------------|

E ---0---0--0---0---0------0--0--0--0--0--0--------0--0--------|
B ---0------0-----------------0-----0-----------------0--------|
G -------2------2---2----2-------2-----2--2-----2--------------|
D ---2------2----------0------2-----2---------0-------2--------|
A -------0------0---4------------0-----0--4--------------------|
E ---4------4-----------------4-----4-----------------4--------|

Hope it Helps
Related for Beautiful Soul tab
Beautiful Soul chords by Jesse Mccartney