Song name
# A B C D E F G H I J K L M N O P Q R S T U V W X Y Z

Jesse Ruben - Advice tab

Lovely Song by Jesse. It's pretty simple and the whole song repeats the same way. Just 
listen to the song to get the plucking down, it's pretty easy to follow. Enjoy!

Capo 3

Intro & Verses:
e|------------------2--------|
B|--3---3---3---3---3--------|
G|--2---2---2---2---0--------|
D|--0-----------2---0--------|
A|------4---2---0------------|
E|------------------3--------|

Refrain:
e|------------------0---2----------|
B|--3---3---0---0---0---3----------|
G|--0---0---0---0---1---0----------|
D|------------------2---0----------|
A|--2---3-----------2--------------|
E|----------3---2---0---3----------|
Tap to rate this tab
# A B C D E F G H I J K L M N O P Q R S T U V W X Y Z