Song name
# A B C D E F G H I J K L M N O P Q R S T U V W X Y Z

Jesse Y Joy - Ya No Quiero tab

Help us improve GuitareTab! Take a short survey!
Ya no quiero  Jesse y Joy

 G       C  Em      D
|-3---3-3----|-3---5-5---|
|---3-----3--|---3-----3-|
|------------|-----------|
|------------|-----------|
|------------|-----------|
|------------|-----------|

G        C            Em    D
Tantas bellas palabras
     G       C Em   D
que me decas
G        C       Em   D
tonta y enamorada
    G        C   Em   D
ya me tenias

G     C          Em   D
Tus caricias vacas
 G        C   Em   D
me las crea
G       C            Em   D
de tus besos y abrazos
    G       C   Em   D
me derreta.

C
Me engaaste y dejaste
                          G
Lastimaste a mi pobre corazn

         B             C           F
YA NO QUIERO VER T FOTO EN MI BUR
G                B         C             F
VETE QUE YA TE TENGO OLVIDADO EN UN CAJN
   G           B              C
Y TODO ESTE TIEMPO TE HE MENTIDO
           Cm
PUES TUS BESOS NO SON LO MEJOR

G                Em   D
Me propuse olvidar
    G    C   Em   D
y madurar
G     C         Em D
Volver a empezar
G            C   Em  D
y lo voy a lograr

C
Te dej en el pasado
        G
Has quedado olvidado corazn

 Em               A  C                   B
|----------7----------|----------7------------|-7-8-7--------------|
|----8---8---8----8---|----8---8---8----------|-------10-8-7-------|
|-/9---9-------9-9--9-|-/9---9-------9-9-9/11-|--------------9-7/9-|
|---------------------|-----------------------|--------------------|
|---------------------|-----------------------|--------------------|
|---------------------|-----------------------|--------------------|

 Em                A             C              B  B - B
|----------7-----------|-------8/10-|---------7---------11-11--11-11|
|----8---8---8----8---8|-8h10-8/10-|---8---9---10-8--8-12-12--12-12|
|-/9---9-------9-9--9--|------------|-9---8-------------------------|
|----------------------|------------|-------------------------------|
|----------------------|------------|-------------------------------|
|----------------------|------------|-------------------------------|

CORO

Related for Ya No Quiero tab