Song name
# A B C D E F G H I J K L M N O P Q R S T U V W X Y Z

Jessey James - Shoes tab

intro

/-----------------------------------------------------------------
/-----------------------------------------------------------------
/----7-x-x---------4-x-x-----------------4-x-x--7-x-x-------------
/----7-x-x--7-x-x--4-x-x---5-x-x--7-x-x--4-x-x--7-x-x--7-x-x------
/----5-x-x--7-x-x--2-x-x---5-x-x--7-x-x--2-x-x--5-x-x--7-x-x------
/-----------5-x-x----------3-x-x--5-x-x----------------5-x-x------

/-----------------------------------------------------------------
/-----------------------------------------------------------------
/----7-x-x---------4-x-x-----------------4-x-x--7-7-7-7-7---------
/----7-x-x--7-x-x--4-x-x---5-x-x--7-x-x--4-x-x--7-7-7-7-7---------
/----5-x-x--7-x-x--2-x-x---5-x-x--7-x-x--2-x-x--5-5-5-5-5---------
/-----------5-x-x----------3-x-x--5-x-x---------------------------

verse

/-----------------------------------------------------------------
/-----------------------------------------------------------------
/----7-7-7-7-7--9-9-9-9-9--4-4-4-4-4--5-5-5-5-5-5-5-5-5-5---------
/----7-7-7-7-7--9-9-9-9-9--4-4-4-4-4--5-5-5-5-5-5-5-5-5-5---------
/----5-5-5-5-5--7-7-7-7-7--2-2-2-2-2--3-3-3-3-3-3-3-3-3-3---------
/-----------------------------------------------------------------

intro x2


well thts all i figured out so far , e-mail me with your opinions if my e-mail is
on here tough shit other wise.
Tap to rate this tab
# A B C D E F G H I J K L M N O P Q R S T U V W X Y Z