Song name
# A B C D E F G H I J K L M N O P Q R S T U V W X Y Z

Jessica Simpson - Take My Breath Away tab

||----------------------------------|
||----------------------------------|
||----------------------------------| X 2
||----------------------------------|
||-----3-5-3~-----------------------|
||-3-5---------3-7~--3-5~--0-3~-----|

||----------------------------------|
||----------------------------------|
||----------------------------------| 
||----------------------------------|
||-5-5-5-5-5---4-4-4-4-4------------|
||-----------5-----------5-7~-7-5~--|


-------------------
shmulik kalomiti :)
-------------------
Tap to rate this tab
# A B C D E F G H I J K L M N O P Q R S T U V W X Y Z