Song name
# A B C D E F G H I J K L M N O P Q R S T U V W X Y Z

Jessica Simpson - With You Acoustic tab

This is my first tab.. i did it by ear plz correct me bc i'm trying to figure out
this song if its wrong. Capo 5 (but not nessesary if u have a strong finger...i
find its easier if i dont use a capo it gets in the way)

E:---------------------------------------------6-66h8------|x7
B:------------------6------------------------6---------6---|
G:------5----5----5--------------------9-----------------7-|
D:----7----5----7-------8p7-5--------10----8---------------|
A:--5----7----8-------8-------8----10----8-----------------|
E:--------------------------------8------------------------|

E:-----6p5-5h6-5h6-----------------------------------------|x2
B:---------------------------------------------------------|
G:-----------------------10p9-9h10-9h10--------------------|
D:----7----------------------------------------------------|
A:--5------------------10----------------------------------|
E:------------------18-------------------------------------|

3 sounds i dunno(can someone figure this out?) 

Am C G F x2(play with index finger barred on 5 if u didint use a capo)

repeat from start x2

E:---------------------------------------------6-66h8------|x2
B:------------------6------------------------6---------6---|
G:------5----5----5--------------------9-----------------7-|
D:----7----5----7-------8p7-5--------10----8---------------|
A:--5----7----8-------8-------8----10----8-----------------|
E:--------------------------------8------------------------|

Another part i dunno...

Am C G F (play with index finger barred on 5 if u didint use a capo)
Tap to rate this tab
# A B C D E F G H I J K L M N O P Q R S T U V W X Y Z