Song name
# A B C D E F G H I J K L M N O P Q R S T U V W X Y Z

Jessie J - Price Tag tab

Artist: Jessie J
Song: Price Tag


 Intro
  Q  S E S S S E E E Q  S E S S S E E E
|-1--1---1---1-1-1---1--1---1---1-1-1------|
|-1--1---1---1-1-1---1--1---1---1-1-1------|
|-2--2---2---2-2-2---2--2---2---2-2-2------|
|-3--3---3---3-3-3---3--3---3---3-3-3------|
|-3--3---3---3-3-3---3--3---3---3-3-3------|
|-1--1---1---1-1-1---1--1---1---1-1-1------|


 Verse
  Q  S E S S S E E E Q  S E S S S E E E
|-1--1---1---1-1-1---5--5---5---5-5-5------|
|-1--1---1---1-1-1---5--5---5---5-5-5------|
|-2--2---2---2-2-2---5--5---5---5-5-5------|
|-3--3---3---3-3-3---7--7---7---7-7-7------|
|-3--3---3---3-3-3---7--7---7---7-7-7------|
|-1--1---1---1-1-1---5--5---5---5-5-5------|

  
  Q  S E S S S E E E Q  S E S S S E E E
|-5--5---5---5-5-5---6--6---6---6-6-6------|
|-6--6---6---6-6-6---6--6---6---6-6-6------|
|-7--7---7---7-7-7---7--7---7---7-7-7------|
|-7--7---7---7-7-7---8--8---8---8-8-8------|
|-5--5---5---5-5-5---8--8---8---8-8-8------|
|--------------------6--6---6---6-6-6------|

  
  Q  S E S S S E E E Q  S E S S S E E E
|-1--1---1---1-1-1---5--5---5---5-5-5------|
|-1--1---1---1-1-1---5--5---5---5-5-5------|
|-2--2---2---2-2-2---5--5---5---5-5-5------|
|-3--3---3---3-3-3---7--7---7---7-7-7------|
|-3--3---3---3-3-3---7--7---7---7-7-7------|
|-1--1---1---1-1-1---5--5---5---5-5-5------|

  
  Q  S E S S S E E E Q  S E S S S E E E
|-5--5---5---5-5-5---6--6---6---6-6-6------|
|-6--6---6---6-6-6---6--6---6---6-6-6------|
|-7--7---7---7-7-7---7--7---7---7-7-7------|
|-7--7---7---7-7-7---8--8---8---8-8-8------|
|-5--5---5---5-5-5---8--8---8---8-8-8------|
|--------------------6--6---6---6-6-6------|


 Pre Chorus
  Q  S E S S S E E E Q  S E S S S E E E
|-1--1---1---1-1-1---5--5---5---5-5-5------|
|-1--1---1---1-1-1---5--5---5---5-5-5------|
|-2--2---2---2-2-2---5--5---5---5-5-5------|
|-3--3---3---3-3-3---7--7---7---7-7-7------|
|-3--3---3---3-3-3---7--7---7---7-7-7------|
|-1--1---1---1-1-1---5--5---5---5-5-5------|

  
  Q  S E S S S E E E W
|-5--5---5---5-5-5---6----|
|-6--6---6---6-6-6---6----|
|-7--7---7---7-7-7---7----|
|-7--7---7---7-7-7---8----|
|-5--5---5---5-5-5---8----|
|--------------------6----|


 Chorus
  Q  S E S S S E E E Q  S E S S S E E E
|-1--1---1---1-1-1---5--5---5---5-5-5------|
|-1--1---1---1-1-1---5--5---5---5-5-5------|
|-2--2---2---2-2-2---5--5---5---5-5-5------|
|-3--3---3---3-3-3---7--7---7---7-7-7------|
|-3--3---3---3-3-3---7--7---7---7-7-7------|
|-1--1---1---1-1-1---5--5---5---5-5-5------|

  
  Q  S E S S S E E E Q  S E S S S E E E
|-5--5---5---5-5-5---6--6---6---6-6-6------|
|-6--6---6---6-6-6---6--6---6---6-6-6------|
|-7--7---7---7-7-7---7--7---7---7-7-7------|
|-7--7---7---7-7-7---8--8---8---8-8-8------|
|-5--5---5---5-5-5---8--8---8---8-8-8------|
|--------------------6--6---6---6-6-6------|

  
  Q  S E S S S E E E Q  S E S S S E E E
|-1--1---1---1-1-1---5--5---5---5-5-5------|
|-1--1---1---1-1-1---5--5---5---5-5-5------|
|-2--2---2---2-2-2---5--5---5---5-5-5------|
|-3--3---3---3-3-3---7--7---7---7-7-7------|
|-3--3---3---3-3-3---7--7---7---7-7-7------|
|-1--1---1---1-1-1---5--5---5---5-5-5------|

  
  Q  S E S S S E E E Q  S E S S S E E E
|-5--5---5---5-5-5---6--6---6---6-6-6------|
|-6--6---6---6-6-6---6--6---6---6-6-6------|
|-7--7---7---7-7-7---7--7---7---7-7-7------|
|-7--7---7---7-7-7---8--8---8---8-8-8------|
|-5--5---5---5-5-5---8--8---8---8-8-8------|
|--------------------6--6---6---6-6-6------|


 Verse
  Q  S E S S S E E E Q  S E S S S E E E
|-1--1---1---1-1-1---5--5---5---5-5-5------|
|-1--1---1---1-1-1---5--5---5---5-5-5------|
|-2--2---2---2-2-2---5--5---5---5-5-5------|
|-3--3---3---3-3-3---7--7---7---7-7-7------|
|-3--3---3---3-3-3---7--7---7---7-7-7------|
|-1--1---1---1-1-1---5--5---5---5-5-5------|

  
  Q  S E S S S E E E Q  S E S S S E E E
|-5--5---5---5-5-5---6--6---6---6-6-6------|
|-6--6---6---6-6-6---6--6---6---6-6-6------|
|-7--7---7---7-7-7---7--7---7---7-7-7------|
|-7--7---7---7-7-7---8--8---8---8-8-8------|
|-5--5---5---5-5-5---8--8---8---8-8-8------|
|--------------------6--6---6---6-6-6------|

  
  Q  S E S S S E E E Q  S E S S S E E E
|-1--1---1---1-1-1---5--5---5---5-5-5------|
|-1--1---1---1-1-1---5--5---5---5-5-5------|
|-2--2---2---2-2-2---5--5---5---5-5-5------|
|-3--3---3---3-3-3---7--7---7---7-7-7------|
|-3--3---3---3-3-3---7--7---7---7-7-7------|
|-1--1---1---1-1-1---5--5---5---5-5-5------|

  
  Q  S E S S S E E E Q  S E S S S E E E
|-5--5---5---5-5-5---6--6---6---6-6-6------|
|-6--6---6---6-6-6---6--6---6---6-6-6------|
|-7--7---7---7-7-7---7--7---7---7-7-7------|
|-7--7---7---7-7-7---8--8---8---8-8-8------|
|-5--5---5---5-5-5---8--8---8---8-8-8------|
|--------------------6--6---6---6-6-6------|


 Pre Chorus
  Q  S E S S S E E E Q  S E S S S E E E
|-1--1---1---1-1-1---5--5---5---5-5-5------|
|-1--1---1---1-1-1---5--5---5---5-5-5------|
|-2--2---2---2-2-2---5--5---5---5-5-5------|
|-3--3---3---3-3-3---7--7---7---7-7-7------|
|-3--3---3---3-3-3---7--7---7---7-7-7------|
|-1--1---1---1-1-1---5--5---5---5-5-5------|

  
  Q  S E S S S E E E W
|-5--5---5---5-5-5---6----|
|-6--6---6---6-6-6---6----|
|-7--7---7---7-7-7---7----|
|-7--7---7---7-7-7---8----|
|-5--5---5---5-5-5---8----|
|--------------------6----|


 Chorus
  Q  S E S S S E E E Q  S E S S S E E E
|-1--1---1---1-1-1---5--5---5---5-5-5------|
|-1--1---1---1-1-1---5--5---5---5-5-5------|
|-2--2---2---2-2-2---5--5---5---5-5-5------|
|-3--3---3---3-3-3---7--7---7---7-7-7------|
|-3--3---3---3-3-3---7--7---7---7-7-7------|
|-1--1---1---1-1-1---5--5---5---5-5-5------|

  
  Q  S E S S S E E E Q  S E S S S E E E
|-5--5---5---5-5-5---6--6---6---6-6-6------|
|-6--6---6---6-6-6---6--6---6---6-6-6------|
|-7--7---7---7-7-7---7--7---7---7-7-7------|
|-7--7---7---7-7-7---8--8---8---8-8-8------|
|-5--5---5---5-5-5---8--8---8---8-8-8------|
|--------------------6--6---6---6-6-6------|

  
  Q  S E S S S E E E Q  S E S S S E E E
|-1--1---1---1-1-1---5--5---5---5-5-5------|
|-1--1---1---1-1-1---5--5---5---5-5-5------|
|-2--2---2---2-2-2---5--5---5---5-5-5------|
|-3--3---3---3-3-3---7--7---7---7-7-7------|
|-3--3---3---3-3-3---7--7---7---7-7-7------|
|-1--1---1---1-1-1---5--5---5---5-5-5------|

  
  Q  S E S S S E E E Q  S E S S S E E E
|-5--5---5---5-5-5---6--6---6---6-6-6------|
|-6--6---6---6-6-6---6--6---6---6-6-6------|
|-7--7---7---7-7-7---7--7---7---7-7-7------|
|-7--7---7---7-7-7---8--8---8---8-8-8------|
|-5--5---5---5-5-5---8--8---8---8-8-8------|
|--------------------6--6---6---6-6-6------|


 Bridge
  Q  S E S S S E E E Q  S E S S S E E E
|-1--1---1---1-1-1---5--5---5---5-5-5------|
|-1--1---1---1-1-1---5--5---5---5-5-5------|
|-2--2---2---2-2-2---5--5---5---5-5-5------|
|-3--3---3---3-3-3---7--7---7---7-7-7------|
|-3--3---3---3-3-3---7--7---7---7-7-7------|
|-1--1---1---1-1-1---5--5---5---5-5-5------|

  
  Q  S E S S S E E E Q  S E S S S E E E
|-5--5---5---5-5-5---6--6---6---6-6-6------|
|-6--6---6---6-6-6---6--6---6---6-6-6------|
|-7--7---7---7-7-7---7--7---7---7-7-7------|
|-7--7---7---7-7-7---8--8---8---8-8-8------|
|-5--5---5---5-5-5---8--8---8---8-8-8------|
|--------------------6--6---6---6-6-6------|

  
  Q  S E S S S E E E Q  S E S S S E E E
|-1--1---1---1-1-1---5--5---5---5-5-5------|
|-1--1---1---1-1-1---5--5---5---5-5-5------|
|-2--2---2---2-2-2---5--5---5---5-5-5------|
|-3--3---3---3-3-3---7--7---7---7-7-7------|
|-3--3---3---3-3-3---7--7---7---7-7-7------|
|-1--1---1---1-1-1---5--5---5---5-5-5------|

  
  Q  S E S S S E E E Q  S E S S S E E E
|-5--5---5---5-5-5---6--6---6---6-6-6------|
|-6--6---6---6-6-6---6--6---6---6-6-6------|
|-7--7---7---7-7-7---7--7---7---7-7-7------|
|-7--7---7---7-7-7---8--8---8---8-8-8------|
|-5--5---5---5-5-5---8--8---8---8-8-8------|
|--------------------6--6---6---6-6-6------|


 Chorus
  Q  S E S S S E E E Q  S E S S S E E E
|-1--1---1---1-1-1---5--5---5---5-5-5------|
|-1--1---1---1-1-1---5--5---5---5-5-5------|
|-2--2---2---2-2-2---5--5---5---5-5-5------|
|-3--3---3---3-3-3---7--7---7---7-7-7------|
|-3--3---3---3-3-3---7--7---7---7-7-7------|
|-1--1---1---1-1-1---5--5---5---5-5-5------|

  
  Q  S E S S S E E E Q  S E S S S E E E
|-5--5---5---5-5-5---6--6---6---6-6-6------|
|-6--6---6---6-6-6---6--6---6---6-6-6------|
|-7--7---7---7-7-7---7--7---7---7-7-7------|
|-7--7---7---7-7-7---8--8---8---8-8-8------|
|-5--5---5---5-5-5---8--8---8---8-8-8------|
|--------------------6--6---6---6-6-6------|

  
  Q  S E S S S E E E Q  S E S S S E E E
|-1--1---1---1-1-1---5--5---5---5-5-5------|
|-1--1---1---1-1-1---5--5---5---5-5-5------|
|-2--2---2---2-2-2---5--5---5---5-5-5------|
|-3--3---3---3-3-3---7--7---7---7-7-7------|
|-3--3---3---3-3-3---7--7---7---7-7-7------|
|-1--1---1---1-1-1---5--5---5---5-5-5------|

  
  Q  S E S S S E E E Q  S E S S S E E E
|-5--5---5---5-5-5---6--6---6---6-6-6------|
|-6--6---6---6-6-6---6--6---6---6-6-6------|
|-7--7---7---7-7-7---7--7---7---7-7-7------|
|-7--7---7---7-7-7---8--8---8---8-8-8------|
|-5--5---5---5-5-5---8--8---8---8-8-8------|
|--------------------6--6---6---6-6-6------|


 Chorus
  Q  S E S S S E E E Q  S E S S S E E E
|-1--1---1---1-1-1---5--5---5---5-5-5------|
|-1--1---1---1-1-1---5--5---5---5-5-5------|
|-2--2---2---2-2-2---5--5---5---5-5-5------|
|-3--3---3---3-3-3---7--7---7---7-7-7------|
|-3--3---3---3-3-3---7--7---7---7-7-7------|
|-1--1---1---1-1-1---5--5---5---5-5-5------|

  
  Q  S E S S S E E E Q  S E S S S E E E
|-5--5---5---5-5-5---6--6---6---6-6-6------|
|-6--6---6---6-6-6---6--6---6---6-6-6------|
|-7--7---7---7-7-7---7--7---7---7-7-7------|
|-7--7---7---7-7-7---8--8---8---8-8-8------|
|-5--5---5---5-5-5---8--8---8---8-8-8------|
|--------------------6--6---6---6-6-6------|

  
  W          W
|-1----------5----|
|-1----------5----|
|-2----------5----|
|-3----------7----|
|-3----------7----|
|-1----------5----|

  
  Q  S E S S S E E E Q  S E S S S E E E
|-5--5---5---5-5-5---6--6---6---6-6-6------|
|-6--6---6---6-6-6---6--6---6---6-6-6------|
|-7--7---7---7-7-7---7--7---7---7-7-7------|
|-7--7---7---7-7-7---8--8---8---8-8-8------|
|-5--5---5---5-5-5---8--8---8---8-8-8------|
|--------------------6--6---6---6-6-6------|


 Outro
  Q  S E S S S E E E Q  S E S S S E E E
|-1--1---1---1-1-1---5--5---5---5-5-5------|
|-1--1---1---1-1-1---5--5---5---5-5-5------|
|-2--2---2---2-2-2---5--5---5---5-5-5------|
|-3--3---3---3-3-3---7--7---7---7-7-7------|
|-3--3---3---3-3-3---7--7---7---7-7-7------|
|-1--1---1---1-1-1---5--5---5---5-5-5------|

  
  Q  S E S S S E E E Q  S E S S S E E E
|-5--5---5---5-5-5---6--6---6---6-6-6------|
|-6--6---6---6-6-6---6--6---6---6-6-6------|
|-7--7---7---7-7-7---7--7---7---7-7-7------|
|-7--7---7---7-7-7---8--8---8---8-8-8------|
|-5--5---5---5-5-5---8--8---8---8-8-8------|
|--------------------6--6---6---6-6-6------|

  
  Q  S E S S S E E E Q  S E S S S E E E
|-1--1---1---1-1-1---5--5---5---5-5-5------|
|-1--1---1---1-1-1---5--5---5---5-5-5------|
|-2--2---2---2-2-2---5--5---5---5-5-5------|
|-3--3---3---3-3-3---7--7---7---7-7-7------|
|-3--3---3---3-3-3---7--7---7---7-7-7------|
|-1--1---1---1-1-1---5--5---5---5-5-5------|

  
  Q  S E S S S E E E Q  S E S S S E E E
|-5--5---5---5-5-5---6--6---6---6-6-6------|
|-6--6---6---6-6-6---6--6---6---6-6-6------|
|-7--7---7---7-7-7---7--7---7---7-7-7------|
|-7--7---7---7-7-7---8--8---8---8-8-8------|
|-5--5---5---5-5-5---8--8---8---8-8-8------|
|--------------------6--6---6---6-6-6------|


  W
|-1----|
|-1----|
|-2----|
|-3----|
|-3----|
|-1----|


www.guitarstars.biz
Tap to rate this tab
 
# A B C D E F G H I J K L M N O P Q R S T U V W X Y Z